  0
SECTION
  2
HEADER
  9
$ACADVER
  1
AC1006
  9
$DWGCODEPAGE
  3
dos932
  9
$INSBASE
 10
0.0
 20
0.0
 30
0.0
  9
$EXTMIN
 10
0.0
 20
0.0
  9
$EXTMAX
 10
5000.0
 20
3500.0
  9
$LIMMIN
 10
0.0
 20
0.0
  9
$LIMMAX
 10
5000.0
 20
3500.0
  9
$ORTHOMODE
 70
     0
  9
$REGENMODE
 70
     1
  9
$FILLMODE
 70
     1
  9
$QTEXTMODE
 70
     0
  9
$MIRRTEXT
 70
     1
  9
$DRAGMODE
 70
     2
  9
$LTSCALE
 40
1.0
  9
$OSMODE
 70
    37
  9
$ATTMODE
 70
     1
  9
$TEXTSIZE
 40
3.5
  9
$TRACEWID
 40
1.0
  9
$TEXTSTYLE
  7
STANDARD
  9
$CLAYER
  8
0
  9
$CELTYPE
  6
BYLAYER
  9
$CECOLOR
 62
   256
  9
$DIMSCALE
 40
1.0
  9
$DIMASZ
 40
3.302
  9
$DIMEXO
 40
1.0
  9
$DIMDLI
 40
3.75
  9
$DIMRND
 40
0.0
  9
$DIMDLE
 40
0.0
  9
$DIMEXE
 40
1.0
  9
$DIMTP
 40
0.0
  9
$DIMTM
 40
0.0
  9
$DIMTXT
 40
3.5
  9
$DIMCEN
 40
2.5
  9
$DIMTSZ
 40
0.0
  9
$DIMTOL
 70
     0
  9
$DIMLIM
 70
     0
  9
$DIMTIH
 70
     1
  9
$DIMTOH
 70
     1
  9
$DIMSE1
 70
     0
  9
$DIMSE2
 70
     0
  9
$DIMTAD
 70
     1
  9
$DIMZIN
 70
     0
  9
$DIMBLK
  1

  9
$DIMASO
 70
     1
  9
$DIMSHO
 70
     1
  9
$DIMPOST
  1

  9
$DIMAPOST
  1

  9
$DIMALT
 70
     0
  9
$DIMALTD
 70
     3
  9
$DIMALTF
 40
0.0393700787401575
  9
$DIMLFAC
 40
1.0
  9
$DIMTOFL
 70
     1
  9
$DIMTVP
 40
0.0
  9
$DIMTIX
 70
     0
  9
$DIMSOXD
 70
     0
  9
$DIMSAH
 70
     0
  9
$DIMBLK1
  1

  9
$DIMBLK2
  1

  9
$LUNITS
 70
     2
  9
$LUPREC
 70
     3
  9
$SKETCHINC
 40
1.0
  9
$FILLETRAD
 40
10.0
  9
$AUNITS
 70
     0
  9
$AUPREC
 70
     2
  9
$MENU
  1
.
  9
$ELEVATION
 40
0.0
  9
$THICKNESS
 40
0.0
  9
$LIMCHECK
 70
     0
  9
$CHAMFERA
 40
0.0
  9
$CHAMFERB
 40
0.0
  9
$SKPOLY
 70
     0
  9
$TDCREATE
 40
2459796.378593993
  9
$TDUPDATE
 40
2460139.360014109
  9
$TDINDWG
 40
0.0000000116
  9
$TDUSRTIMER
 40
0.0000000116
  9
$USRTIMER
 70
     1
  9
$ANGBASE
 50
0.0
  9
$ANGDIR
 70
     0
  9
$PDMODE
 70
     0
  9
$PDSIZE
 40
-1.0
  9
$PLINEWID
 40
0.0
  9
$COORDS
 70
     1
  9
$SPLFRAME
 70
     0
  9
$SPLINETYPE
 70
     6
  9
$SPLINESEGS
 70
     8
  9
$ATTDIA
 70
     0
  9
$ATTREQ
 70
     1
  9
$HANDLING
 70
     1
  9
$HANDSEED
  5
3BC
  9
$SURFTAB1
 70
     6
  9
$SURFTAB2
 70
     6
  9
$SURFTYPE
 70
     6
  9
$SURFU
 70
     6
  9
$SURFV
 70
     6
  9
$UCSNAME
  2

  9
$UCSORG
 10
0.0
 20
0.0
 30
0.0
  9
$UCSXDIR
 10
1.0
 20
0.0
 30
0.0
  9
$UCSYDIR
 10
0.0
 20
1.0
 30
0.0
  9
$USERI1
 70
     0
  9
$USERI2
 70
     0
  9
$USERI3
 70
     0
  9
$USERI4
 70
     0
  9
$USERI5
 70
     0
  9
$USERR1
 40
0.0
  9
$USERR2
 40
0.0
  9
$USERR3
 40
0.0
  9
$USERR4
 40
0.0
  9
$USERR5
 40
0.0
  9
$WORLDVIEW
 70
     1
  0
ENDSEC
  0
SECTION
  2
TABLES
  0
TABLE
  2
VPORT
 70
     1
  0
VPORT
  2
*ACTIVE
 70
     0
 10
0.0
 20
0.0
 11
1.0
 21
1.0
 12
2500.0
 22
1750.0
 13
0.0
 23
0.0
 14
10.0
 24
10.0
 15
10.0
 25
10.0
 16
0.0
 26
0.0
 36
1.0
 17
0.0
 27
0.0
 37
0.0
 40
3500.0
 41
1.428571428571429
 42
50.0
 43
0.0
 44
0.0
 50
0.0
 51
0.0
 71
     0
 72
  2000
 73
     1
 74
     3
 75
     0
 76
     0
 77
     0
 78
     0
  0
ENDTAB
  0
TABLE
  2
LTYPE
 70
     6
  0
LTYPE
  2
CONTINUOUS
 70
     0
  3
Solid line
 72
    65
 73
     0
 40
0.0
  0
LTYPE
  2
HIDDEN
 70
     0
  3
Hidden __ __ __ __ __ __ __ __ __ __ __ __ __ __
 72
    65
 73
     2
 40
1.905
 49
1.27
 49
-0.635
  0
LTYPE
  2
PHANTOM
 70
     0
  3
Phantom ______  __  __  ______  __  __  ______
 72
    65
 73
     6
 40
12.7
 49
6.35
 49
-1.27
 49
1.27
 49
-1.27
 49
1.27
 49
-1.27
  0
LTYPE
  2
CENTER
 70
     0
  3
Center ____ _ ____ _ ____ _ ____ _ ____ _ ____
 72
    65
 73
     4
 40
10.16
 49
6.35
 49
-1.27
 49
1.27
 49
-1.27
  0
LTYPE
  2
CENTERX2
 70
     0
  3
Center (2x) ________  __  ________  __  _____
 72
    65
 73
     4
 40
20.32
 49
12.7
 49
-2.54
 49
2.54
 49
-2.54
  0
LTYPE
  2
DOT2
 70
     0
  3
Dot (.5x) ........................................
 72
    65
 73
     2
 40
0.635
 49
0.0
 49
-0.635
  0
ENDTAB
  0
TABLE
  2
LAYER
 70
     3
  0
LAYER
  2
0
 70
     0
 62
     7
  6
CONTINUOUS
  0
LAYER
  2
SLD-0
 70
     0
 62
   179
  6
CONTINUOUS
  0
LAYER
  2
寸法
 70
     0
 62
   179
  6
CONTINUOUS
  0
ENDTAB
  0
TABLE
  2
STYLE
 70
     2
  0
STYLE
  2
STANDARD
 70
     0
 40
0.0
 41
1.0
 50
0.0
 71
     0
 42
3.5
  3
txt
  4
bigfont
  0
STYLE
  2
SLDTEXTSTYLE0
 70
     0
 40
0.0
 41
0.75
 50
0.0
 71
     0
 42
3.5
  3
TXT
  4
bigfont
  0
ENDTAB
  0
TABLE
  2
VIEW
 70
     0
  0
ENDTAB
  0
TABLE
  2
UCS
 70
     0
  0
ENDTAB
  0
ENDSEC
  0
SECTION
  2
BLOCKS
  0
ENDSEC
  0
SECTION
  2
ENTITIES
  0
LINE
  5
75
  8
0
  6
CONTINUOUS
 62
     7
 10
4839.484712179223
 20
258.5233124172521
 30
0.0
 11
3312.374599790194
 21
258.5233124172519
 31
0.0
  0
TEXT
  5
77
  8
0
  6
CONTINUOUS
 62
     7
 10
1464.551962569007
 20
3112.118742029093
 30
0.0
 40
52.91666666666666
  1
＜上面＞
 41
0.75
  7
SLDTEXTSTYLE0
  0
TEXT
  5
78
  8
0
  6
CONTINUOUS
 62
     7
 10
355.8266146156561
 20
2059.10287084639
 30
0.0
 40
52.91666666666666
  1
＜左側面＞
 41
0.75
  7
SLDTEXTSTYLE0
  0
TEXT
  5
79
  8
0
  6
CONTINUOUS
 62
     7
 10
1464.551962569006
 20
2059.102870846391
 30
0.0
 40
52.91666666666666
  1
＜正面＞
 41
0.75
  7
SLDTEXTSTYLE0
  0
TEXT
  5
7A
  8
0
  6
CONTINUOUS
 62
     7
 10
3377.814243189123
 20
326.489054196763
 30
0.0
 40
52.91666666666666
  1
品名：
 41
0.75
  7
SLDTEXTSTYLE0
  0
TEXT
  5
7B
  8
0
  6
CONTINUOUS
 62
     7
 10
4446.663437481703
 20
332.3177187478654
 30
0.0
 40
52.91666666666666
  1
Pamouna
 41
0.75
  7
SLDTEXTSTYLE0
  0
TEXT
  5
7C
  8
寸法
  6
CONTINUOUS
 62
     7
 10
4688.007304885427
 20
165.7088516276312
 30
0.0
 40
52.91666666666666
  1
1/1
 41
0.75
  7
SLDTEXTSTYLE0
  0
TEXT
  5
7D
  8
寸法
  6
CONTINUOUS
 62
     7
 10
4198.79693921183
 20
165.7088544215994
 30
0.0
 40
52.91666666666666
  1
2022/08/04
 41
0.75
  7
SLDTEXTSTYLE0
  0
TEXT
  5
7E
  8
寸法
  6
CONTINUOUS
 62
     7
 10
1460.016337783187
 20
1137.89215271946
 30
0.0
 40
52.91666666666666
  1
＜背面＞
 41
0.75
  7
SLDTEXTSTYLE0
  0
TEXT
  5
7F
  8
寸法
  6
CONTINUOUS
 62
     7
 10
3611.283129349215
 20
326.4179237671586
 30
0.0
 40
66.14583333333331
  1
MA-S180A（-T）
 41
0.75
  7
SLDTEXTSTYLE0
  0
TEXT
  5
80
  8
寸法
  6
CONTINUOUS
 62
     7
 10
3900.732809245012
 20
2048.104271301321
 30
0.0
 40
52.91666666666666
  1
＜右側面＞
 41
0.75
  7
SLDTEXTSTYLE0
  0
ARC
  5
81
  8
0
  6
CONTINUOUS
 62
     7
 10
1540.755582294207
 20
1643.62907738161
 30
0.0
 40
0.2000000000000455
 50
180.0
 51
270.0000000000008
  0
LINE
  5
82
  8
0
  6
CONTINUOUS
 62
     7
 10
1540.755582294207
 20
1643.42907738161
 30
0.0
 11
1541.555582294207
 21
1643.42907738161
 31
0.0
  0
ARC
  5
83
  8
0
  6
CONTINUOUS
 62
     7
 10
2440.255582294204
 20
1643.62907738161
 30
0.0
 40
0.1999999999998181
 50
180.0
 51
270.0000000000008
  0
LINE
  5
84
  8
0
  6
CONTINUOUS
 62
     7
 10
2440.255582294204
 20
1643.42907738161
 30
0.0
 11
2441.055582294204
 21
1643.42907738161
 31
0.0
  0
LINE
  5
85
  8
0
  6
CONTINUOUS
 62
     7
 10
1541.555582294207
 20
1643.42907738161
 30
0.0
 11
2435.555582294206
 21
1643.42907738161
 31
0.0
  0
LINE
  5
86
  8
0
  6
CONTINUOUS
 62
     7
 10
2441.055582294204
 20
1643.42907738161
 30
0.0
 11
3335.055582294204
 21
1643.429077381611
 31
0.0
  0
ARC
  5
87
  8
0
  6
CONTINUOUS
 62
     7
 10
2436.355582294207
 20
1643.62907738161
 30
0.0
 40
0.1999999999998181
 50
270.0000000000008
 51
0.0
  0
LINE
  5
88
  8
0
  6
CONTINUOUS
 62
     7
 10
2435.555582294206
 20
1643.42907738161
 30
0.0
 11
2436.355582294207
 21
1643.42907738161
 31
0.0
  0
ARC
  5
89
  8
0
  6
CONTINUOUS
 62
     7
 10
3335.855582294204
 20
1643.629077381611
 30
0.0
 40
0.1999999999998181
 50
270.0000000000008
 51
0.0
  0
LINE
  5
8A
  8
0
  6
CONTINUOUS
 62
     7
 10
3335.055582294204
 20
1643.429077381611
 30
0.0
 11
3335.855582294204
 21
1643.429077381611
 31
0.0
  0
LINE
  5
8B
  8
0
  6
CONTINUOUS
 62
     7
 10
3333.055582294204
 20
1643.929077381611
 30
0.0
 11
3333.055582294204
 21
1644.429077381611
 31
0.0
  0
LINE
  5
8C
  8
0
  6
CONTINUOUS
 62
     7
 10
2442.555582294205
 20
1644.429077381611
 30
0.0
 11
2442.555582294205
 21
1643.929077381611
 31
0.0
  0
LINE
  5
8D
  8
0
  6
CONTINUOUS
 62
     7
 10
2442.555582294205
 20
1643.929077381611
 30
0.0
 11
3333.055582294204
 21
1643.929077381611
 31
0.0
  0
LINE
  5
8E
  8
0
  6
CONTINUOUS
 62
     7
 10
3333.055582294204
 20
1644.429077381611
 30
0.0
 11
2442.555582294205
 21
1644.429077381611
 31
0.0
  0
LINE
  5
8F
  8
0
  6
CONTINUOUS
 62
     7
 10
3336.055582294204
 20
1644.429077381611
 30
0.0
 11
3336.055582294204
 21
1643.929077381611
 31
0.0
  0
LINE
  5
90
  8
0
  6
CONTINUOUS
 62
     7
 10
3336.055582294204
 20
1643.929077381611
 30
0.0
 11
3333.055582294204
 21
1643.929077381611
 31
0.0
  0
LINE
  5
91
  8
0
  6
CONTINUOUS
 62
     7
 10
3333.055582294204
 20
1644.429077381611
 30
0.0
 11
3336.055582294204
 21
1644.429077381611
 31
0.0
  0
LINE
  5
92
  8
0
  6
CONTINUOUS
 62
     7
 10
2439.555582294205
 20
1643.929077381611
 30
0.0
 11
2439.555582294205
 21
1644.429077381611
 31
0.0
  0
LINE
  5
93
  8
0
  6
CONTINUOUS
 62
     7
 10
2442.555582294205
 20
1643.929077381611
 30
0.0
 11
2439.555582294205
 21
1643.929077381611
 31
0.0
  0
LINE
  5
94
  8
0
  6
CONTINUOUS
 62
     7
 10
2439.555582294205
 20
1644.429077381611
 30
0.0
 11
2442.555582294205
 21
1644.429077381611
 31
0.0
  0
LINE
  5
95
  8
0
  6
CONTINUOUS
 62
     7
 10
2433.555582294206
 20
1643.92907738161
 30
0.0
 11
2433.555582294206
 21
1644.42907738161
 31
0.0
  0
LINE
  5
96
  8
0
  6
CONTINUOUS
 62
     7
 10
1543.055582294207
 20
1644.429077381611
 30
0.0
 11
1543.055582294207
 21
1643.929077381611
 31
0.0
  0
LINE
  5
97
  8
0
  6
CONTINUOUS
 62
     7
 10
1543.055582294207
 20
1643.929077381611
 30
0.0
 11
2433.555582294206
 21
1643.92907738161
 31
0.0
  0
LINE
  5
98
  8
0
  6
CONTINUOUS
 62
     7
 10
2433.555582294206
 20
1644.42907738161
 30
0.0
 11
1543.055582294207
 21
1644.429077381611
 31
0.0
  0
LINE
  5
99
  8
0
  6
CONTINUOUS
 62
     7
 10
2436.555582294206
 20
1644.42907738161
 30
0.0
 11
2436.555582294206
 21
1643.92907738161
 31
0.0
  0
LINE
  5
9A
  8
0
  6
CONTINUOUS
 62
     7
 10
2436.555582294206
 20
1643.92907738161
 30
0.0
 11
2433.555582294206
 21
1643.92907738161
 31
0.0
  0
LINE
  5
9B
  8
0
  6
CONTINUOUS
 62
     7
 10
2433.555582294206
 20
1644.42907738161
 30
0.0
 11
2436.555582294206
 21
1644.42907738161
 31
0.0
  0
LINE
  5
9C
  8
0
  6
CONTINUOUS
 62
     7
 10
1540.055582294207
 20
1643.929077381611
 30
0.0
 11
1540.055582294207
 21
1644.429077381611
 31
0.0
  0
LINE
  5
9D
  8
0
  6
CONTINUOUS
 62
     7
 10
1543.055582294207
 20
1643.929077381611
 30
0.0
 11
1540.055582294207
 21
1643.929077381611
 31
0.0
  0
LINE
  5
9E
  8
0
  6
CONTINUOUS
 62
     7
 10
1540.055582294207
 20
1644.429077381611
 30
0.0
 11
1543.055582294207
 21
1644.429077381611
 31
0.0
  0
LINE
  5
9F
  8
0
  6
CONTINUOUS
 62
     7
 10
3333.055582294204
 20
1644.429077381611
 30
0.0
 11
3333.055582294204
 21
1890.429077381613
 31
0.0
  0
LINE
  5
A0
  8
0
  6
CONTINUOUS
 62
     7
 10
3333.055582294204
 20
1890.429077381613
 30
0.0
 11
3336.055582294204
 21
1890.429077381613
 31
0.0
  0
LINE
  5
A1
  8
0
  6
CONTINUOUS
 62
     7
 10
3336.055582294204
 20
1890.429077381613
 30
0.0
 11
3336.055582294204
 21
1644.429077381611
 31
0.0
  0
LINE
  5
A2
  8
0
  6
CONTINUOUS
 62
     7
 10
2442.555582294205
 20
1890.429077381613
 30
0.0
 11
2442.555582294205
 21
1644.429077381611
 31
0.0
  0
LINE
  5
A3
  8
0
  6
CONTINUOUS
 62
     7
 10
2442.555582294205
 20
1890.429077381613
 30
0.0
 11
3333.055582294204
 21
1890.429077381613
 31
0.0
  0
LINE
  5
A4
  8
0
  6
CONTINUOUS
 62
     7
 10
2439.555582294205
 20
1644.429077381611
 30
0.0
 11
2439.555582294205
 21
1890.429077381613
 31
0.0
  0
LINE
  5
A5
  8
0
  6
CONTINUOUS
 62
     7
 10
2439.555582294205
 20
1890.429077381613
 30
0.0
 11
2442.555582294205
 21
1890.429077381613
 31
0.0
  0
LINE
  5
A6
  8
0
  6
CONTINUOUS
 62
     7
 10
1540.055582294207
 20
1644.429077381611
 30
0.0
 11
1540.055582294207
 21
1890.429077381613
 31
0.0
  0
LINE
  5
A7
  8
0
  6
CONTINUOUS
 62
     7
 10
1540.055582294207
 20
1890.429077381613
 30
0.0
 11
1543.055582294207
 21
1890.429077381613
 31
0.0
  0
LINE
  5
A8
  8
0
  6
CONTINUOUS
 62
     7
 10
1543.055582294207
 20
1890.429077381613
 30
0.0
 11
1543.055582294207
 21
1644.429077381611
 31
0.0
  0
LINE
  5
A9
  8
0
  6
CONTINUOUS
 62
     7
 10
2433.555582294206
 20
1644.42907738161
 30
0.0
 11
2433.555582294206
 21
1890.429077381612
 31
0.0
  0
LINE
  5
AA
  8
0
  6
CONTINUOUS
 62
     7
 10
1543.055582294207
 20
1890.429077381613
 30
0.0
 11
2433.555582294206
 21
1890.429077381612
 31
0.0
  0
LINE
  5
AB
  8
0
  6
CONTINUOUS
 62
     7
 10
2436.555582294206
 20
1890.429077381612
 30
0.0
 11
2436.555582294206
 21
1644.42907738161
 31
0.0
  0
LINE
  5
AC
  8
0
  6
CONTINUOUS
 62
     7
 10
2433.555582294206
 20
1890.429077381612
 30
0.0
 11
2436.555582294206
 21
1890.429077381612
 31
0.0
  0
LINE
  5
AD
  8
0
  6
CONTINUOUS
 62
     7
 10
3333.055582294204
 20
1890.429077381613
 30
0.0
 11
3333.055582294204
 21
1890.929077381613
 31
0.0
  0
LINE
  5
AE
  8
0
  6
CONTINUOUS
 62
     7
 10
2442.555582294205
 20
1890.929077381613
 30
0.0
 11
2442.555582294205
 21
1890.429077381613
 31
0.0
  0
LINE
  5
AF
  8
0
  6
CONTINUOUS
 62
     7
 10
2442.555582294205
 20
1890.929077381613
 30
0.0
 11
3333.055582294204
 21
1890.929077381613
 31
0.0
  0
LINE
  5
B0
  8
0
  6
CONTINUOUS
 62
     7
 10
2439.555582294205
 20
1890.429077381613
 30
0.0
 11
2439.555582294205
 21
1890.929077381613
 31
0.0
  0
LINE
  5
B1
  8
0
  6
CONTINUOUS
 62
     7
 10
2439.555582294205
 20
1890.929077381613
 30
0.0
 11
2442.555582294205
 21
1890.929077381613
 31
0.0
  0
LINE
  5
B2
  8
0
  6
CONTINUOUS
 62
     7
 10
3336.055582294204
 20
1890.929077381613
 30
0.0
 11
3336.055582294204
 21
1890.429077381613
 31
0.0
  0
LINE
  5
B3
  8
0
  6
CONTINUOUS
 62
     7
 10
3333.055582294204
 20
1890.929077381613
 30
0.0
 11
3336.055582294204
 21
1890.929077381613
 31
0.0
  0
LINE
  5
B4
  8
0
  6
CONTINUOUS
 62
     7
 10
2433.555582294206
 20
1890.429077381612
 30
0.0
 11
2433.555582294206
 21
1890.929077381613
 31
0.0
  0
LINE
  5
B5
  8
0
  6
CONTINUOUS
 62
     7
 10
1543.055582294207
 20
1890.929077381613
 30
0.0
 11
1543.055582294207
 21
1890.429077381613
 31
0.0
  0
LINE
  5
B6
  8
0
  6
CONTINUOUS
 62
     7
 10
1543.055582294207
 20
1890.929077381613
 30
0.0
 11
2433.555582294206
 21
1890.929077381613
 31
0.0
  0
LINE
  5
B7
  8
0
  6
CONTINUOUS
 62
     7
 10
1540.055582294207
 20
1890.429077381613
 30
0.0
 11
1540.055582294207
 21
1890.929077381613
 31
0.0
  0
LINE
  5
B8
  8
0
  6
CONTINUOUS
 62
     7
 10
1540.055582294207
 20
1890.929077381613
 30
0.0
 11
1543.055582294207
 21
1890.929077381613
 31
0.0
  0
LINE
  5
B9
  8
0
  6
CONTINUOUS
 62
     7
 10
2436.555582294206
 20
1890.929077381613
 30
0.0
 11
2436.555582294206
 21
1890.429077381612
 31
0.0
  0
LINE
  5
BA
  8
0
  6
CONTINUOUS
 62
     7
 10
2433.555582294206
 20
1890.929077381613
 30
0.0
 11
2436.555582294206
 21
1890.929077381613
 31
0.0
  0
LINE
  5
BB
  8
0
  6
CONTINUOUS
 62
     7
 10
2439.555582294205
 20
1659.929077381611
 30
0.0
 11
2436.555582294206
 21
1659.929077381611
 31
0.0
  0
LINE
  5
BC
  8
0
  6
CONTINUOUS
 62
     7
 10
1555.055582294207
 20
1642.929077381612
 30
0.0
 11
3321.055582294207
 21
1642.929077381612
 31
0.0
  0
LINE
  5
BD
  8
0
  6
CONTINUOUS
 62
     7
 10
2439.555582294205
 20
1876.929077381612
 30
0.0
 11
2436.555582294206
 21
1876.929077381612
 31
0.0
  0
LINE
  5
BE
  8
0
  6
CONTINUOUS
 62
     7
 10
1540.555582294207
 20
1643.640226103357
 30
0.0
 11
1540.555582294207
 21
1643.72907738161
 31
0.0
  0
POLYLINE
  5
BF
  8
0
  6
CONTINUOUS
 62
     7
 66
     1
 10
0.0
 20
0.0
 30
0.0
  0
VERTEX
  5
230
  8
0
  6
CONTINUOUS
 62
     7
 10
1540.555582294207
 20
1643.72907738161
 30
0.0
  0
VERTEX
  5
231
  8
0
  6
CONTINUOUS
 62
     7
 10
1540.555599730969
 20
1643.731835313788
 30
0.0
  0
VERTEX
  5
232
  8
0
  6
CONTINUOUS
 62
     7
 10
1540.555655528732
 20
1643.734661753535
 30
0.0
  0
VERTEX
  5
233
  8
0
  6
CONTINUOUS
 62
     7
 10
1540.555754130323
 20
1643.737557540699
 30
0.0
  0
VERTEX
  5
234
  8
0
  6
CONTINUOUS
 62
     7
 10
1540.555898566532
 20
1643.740520698082
 30
0.0
  0
VERTEX
  5
235
  8
0
  6
CONTINUOUS
 62
     7
 10
1540.556091868154
 20
1643.743549248491
 30
0.0
  0
VERTEX
  5
236
  8
0
  6
CONTINUOUS
 62
     7
 10
1540.556337065985
 20
1643.74664121473
 30
0.0
  0
VERTEX
  5
237
  8
0
  6
CONTINUOUS
 62
     7
 10
1540.556637190816
 20
1643.749794619604
 30
0.0
  0
VERTEX
  5
238
  8
0
  6
CONTINUOUS
 62
     7
 10
1540.556995273443
 20
1643.75300748592
 30
0.0
  0
VERTEX
  5
239
  8
0
  6
CONTINUOUS
 62
     7
 10
1540.557414344657
 20
1643.75627783648
 30
0.0
  0
VERTEX
  5
23A
  8
0
  6
CONTINUOUS
 62
     7
 10
1540.557897435255
 20
1643.759603694092
 30
0.0
  0
VERTEX
  5
23B
  8
0
  6
CONTINUOUS
 62
     7
 10
1540.558447576028
 20
1643.762983081559
 30
0.0
  0
VERTEX
  5
23C
  8
0
  6
CONTINUOUS
 62
     7
 10
1540.559067797772
 20
1643.766414021687
 30
0.0
  0
VERTEX
  5
23D
  8
0
  6
CONTINUOUS
 62
     7
 10
1540.55976113128
 20
1643.769894537281
 30
0.0
  0
VERTEX
  5
23E
  8
0
  6
CONTINUOUS
 62
     7
 10
1540.560530607346
 20
1643.773422651145
 30
0.0
  0
VERTEX
  5
23F
  8
0
  6
CONTINUOUS
 62
     7
 10
1540.561379256763
 20
1643.776996386085
 30
0.0
  0
VERTEX
  5
240
  8
0
  6
CONTINUOUS
 62
     7
 10
1540.562310110325
 20
1643.780613764907
 30
0.0
  0
VERTEX
  5
241
  8
0
  6
CONTINUOUS
 62
     7
 10
1540.563326198827
 20
1643.784272810414
 30
0.0
  0
VERTEX
  5
242
  8
0
  6
CONTINUOUS
 62
     7
 10
1540.564430553062
 20
1643.787971545413
 30
0.0
  0
VERTEX
  5
243
  8
0
  6
CONTINUOUS
 62
     7
 10
1540.565626203824
 20
1643.791707992708
 30
0.0
  0
VERTEX
  5
244
  8
0
  6
CONTINUOUS
 62
     7
 10
1540.566916181906
 20
1643.795480175104
 30
0.0
  0
VERTEX
  5
245
  8
0
  6
CONTINUOUS
 62
     7
 10
1540.568303518103
 20
1643.799286115406
 30
0.0
  0
VERTEX
  5
246
  8
0
  6
CONTINUOUS
 62
     7
 10
1540.569791243208
 20
1643.80312383642
 30
0.0
  0
VERTEX
  5
247
  8
0
  6
CONTINUOUS
 62
     7
 10
1540.571382388015
 20
1643.80699136095
 30
0.0
  0
VERTEX
  5
248
  8
0
  6
CONTINUOUS
 62
     7
 10
1540.573079983318
 20
1643.810886711802
 30
0.0
  0
VERTEX
  5
249
  8
0
  6
CONTINUOUS
 62
     7
 10
1540.574887072468
 20
1643.814807833957
 30
0.0
  0
VERTEX
  5
24A
  8
0
  6
CONTINUOUS
 62
     7
 10
1540.576806921376
 20
1643.818751292996
 30
0.0
  0
VERTEX
  5
24B
  8
0
  6
CONTINUOUS
 62
     7
 10
1540.578842986957
 20
1643.822712470704
 30
0.0
  0
VERTEX
  5
24C
  8
0
  6
CONTINUOUS
 62
     7
 10
1540.580998732323
 20
1643.826686710449
 30
0.0
  0
VERTEX
  5
24D
  8
0
  6
CONTINUOUS
 62
     7
 10
1540.583277620587
 20
1643.830669355602
 30
0.0
  0
VERTEX
  5
24E
  8
0
  6
CONTINUOUS
 62
     7
 10
1540.58568311486
 20
1643.834655749533
 30
0.0
  0
VERTEX
  5
24F
  8
0
  6
CONTINUOUS
 62
     7
 10
1540.588218678255
 20
1643.838641235611
 30
0.0
  0
VERTEX
  5
250
  8
0
  6
CONTINUOUS
 62
     7
 10
1540.590887773885
 20
1643.842621157207
 30
0.0
  0
VERTEX
  5
251
  8
0
  6
CONTINUOUS
 62
     7
 10
1540.593693864862
 20
1643.84659085769
 30
0.0
  0
VERTEX
  5
252
  8
0
  6
CONTINUOUS
 62
     7
 10
1540.596640414297
 20
1643.850545680429
 30
0.0
  0
VERTEX
  5
253
  8
0
  6
CONTINUOUS
 62
     7
 10
1540.599730885304
 20
1643.854480968795
 30
0.0
  0
VERTEX
  5
254
  8
0
  6
CONTINUOUS
 62
     7
 10
1540.602968740993
 20
1643.858392066157
 30
0.0
  0
VERTEX
  5
255
  8
0
  6
CONTINUOUS
 62
     7
 10
1540.606357444479
 20
1643.862274315885
 30
0.0
  0
VERTEX
  5
256
  8
0
  6
CONTINUOUS
 62
     7
 10
1540.609900458874
 20
1643.866123061349
 30
0.0
  0
VERTEX
  5
257
  8
0
  6
CONTINUOUS
 62
     7
 10
1540.613601245681
 20
1643.869933644607
 30
0.0
  0
VERTEX
  5
258
  8
0
  6
CONTINUOUS
 62
     7
 10
1540.617462571552
 20
1643.873700840427
 30
0.0
  0
VERTEX
  5
259
  8
0
  6
CONTINUOUS
 62
     7
 10
1540.621485426412
 20
1643.877417973037
 30
0.0
  0
VERTEX
  5
25A
  8
0
  6
CONTINUOUS
 62
     7
 10
1540.62567052026
 20
1643.881078138128
 30
0.0
  0
VERTEX
  5
25B
  8
0
  6
CONTINUOUS
 62
     7
 10
1540.630018563093
 20
1643.884674431389
 30
0.0
  0
VERTEX
  5
25C
  8
0
  6
CONTINUOUS
 62
     7
 10
1540.63453026491
 20
1643.888199948512
 30
0.0
  0
VERTEX
  5
25D
  8
0
  6
CONTINUOUS
 62
     7
 10
1540.639206335707
 20
1643.891647785186
 30
0.0
  0
VERTEX
  5
25E
  8
0
  6
CONTINUOUS
 62
     7
 10
1540.644047485482
 20
1643.895011037102
 30
0.0
  0
VERTEX
  5
25F
  8
0
  6
CONTINUOUS
 62
     7
 10
1540.649054424234
 20
1643.89828279995
 30
0.0
  0
VERTEX
  5
260
  8
0
  6
CONTINUOUS
 62
     7
 10
1540.65422786196
 20
1643.901456169421
 30
0.0
  0
VERTEX
  5
261
  8
0
  6
CONTINUOUS
 62
     7
 10
1540.659568508654
 20
1643.904524241196
 30
0.0
  0
VERTEX
  5
262
  8
0
  6
CONTINUOUS
 62
     7
 10
1540.665075850802
 20
1643.907477559354
 30
0.0
  0
VERTEX
  5
263
  8
0
  6
CONTINUOUS
 62
     7
 10
1540.670744708459
 20
1643.910296936212
 30
0.0
  0
VERTEX
  5
264
  8
0
  6
CONTINUOUS
 62
     7
 10
1540.676568789344
 20
1643.912960864331
 30
0.0
  0
VERTEX
  5
265
  8
0
  6
CONTINUOUS
 62
     7
 10
1540.682541801177
 20
1643.915447836272
 30
0.0
  0
VERTEX
  5
266
  8
0
  6
CONTINUOUS
 62
     7
 10
1540.688657451676
 20
1643.917736344595
 30
0.0
  0
VERTEX
  5
267
  8
0
  6
CONTINUOUS
 62
     7
 10
1540.694909448562
 20
1643.919804881863
 30
0.0
  0
VERTEX
  5
268
  8
0
  6
CONTINUOUS
 62
     7
 10
1540.701291499554
 20
1643.921631940636
 30
0.0
  0
VERTEX
  5
269
  8
0
  6
CONTINUOUS
 62
     7
 10
1540.707797080287
 20
1643.923197388618
 30
0.0
  0
VERTEX
  5
26A
  8
0
  6
CONTINUOUS
 62
     7
 10
1540.714414853358
 20
1643.924509611445
 30
0.0
  0
VERTEX
  5
26B
  8
0
  6
CONTINUOUS
 62
     7
 10
1540.721128943072
 20
1643.925603884813
 30
0.0
  0
VERTEX
  5
26C
  8
0
  6
CONTINUOUS
 62
     7
 10
1540.727923296656
 20
1643.926516533631
 30
0.0
  0
VERTEX
  5
26D
  8
0
  6
CONTINUOUS
 62
     7
 10
1540.734781861335
 20
1643.927283882811
 30
0.0
  0
VERTEX
  5
26E
  8
0
  6
CONTINUOUS
 62
     7
 10
1540.741688584336
 20
1643.92794225726
 30
0.0
  0
VERTEX
  5
26F
  8
0
  6
CONTINUOUS
 62
     7
 10
1540.748627412885
 20
1643.92852798189
 30
0.0
  0
VERTEX
  5
270
  8
0
  6
CONTINUOUS
 62
     7
 10
1540.755582294207
 20
1643.92907738161
 30
0.0
  0
SEQEND
  5
3B6
  8
0
  6
CONTINUOUS
 62
     7
  0
LINE
  5
C0
  8
0
  6
CONTINUOUS
 62
     7
 10
1540.755582294207
 20
1643.92907738161
 30
0.0
 11
1540.755582294207
 21
1643.443013283794
 31
0.0
  0
ARC
  5
C1
  8
0
  6
CONTINUOUS
 62
     7
 10
1540.754198414457
 20
1643.641629541281
 30
0.0
 40
0.1986210785926311
 50
180.4048499762031
 51
270.3992079346073
  0
LINE
  5
C2
  8
0
  6
CONTINUOUS
 62
     7
 10
1541.555582294207
 20
1643.443013283794
 30
0.0
 11
1541.555582294207
 21
1643.92907738161
 31
0.0
  0
LINE
  5
C3
  8
0
  6
CONTINUOUS
 62
     7
 10
1540.755582294207
 20
1643.443013283794
 30
0.0
 11
1541.555582294207
 21
1643.443013283794
 31
0.0
  0
LINE
  5
C4
  8
0
  6
CONTINUOUS
 62
     7
 10
1540.555582294207
 20
1643.62907738161
 30
0.0
 11
1540.555582294207
 21
1643.640226103357
 31
0.0
  0
LINE
  5
C5
  8
0
  6
CONTINUOUS
 62
     7
 10
1541.555582294207
 20
1643.42907738161
 30
0.0
 11
1541.555582294207
 21
1643.443013283794
 31
0.0
  0
LINE
  5
C6
  8
0
  6
CONTINUOUS
 62
     7
 10
1540.555582294207
 20
1643.72907738161
 30
0.0
 11
1540.555582294207
 21
1643.929077381611
 31
0.0
  0
LINE
  5
C7
  8
0
  6
CONTINUOUS
 62
     7
 10
2440.055582294205
 20
1643.640226103357
 30
0.0
 11
2440.055582294205
 21
1643.729077381611
 31
0.0
  0
LINE
  5
C8
  8
0
  6
CONTINUOUS
 62
     7
 10
2440.255582294204
 20
1643.92907738161
 30
0.0
 11
2440.255582294204
 21
1643.443013283794
 31
0.0
  0
ARC
  5
C9
  8
0
  6
CONTINUOUS
 62
     7
 10
2440.254198414455
 20
1643.641629541281
 30
0.0
 40
0.1986210785923585
 50
180.4048499761384
 51
270.3992079345422
  0
POLYLINE
  5
CA
  8
0
  6
CONTINUOUS
 62
     7
 66
     1
 10
0.0
 20
0.0
 30
0.0
  0
VERTEX
  5
271
  8
0
  6
CONTINUOUS
 62
     7
 10
2440.055582294205
 20
1643.729077381611
 30
0.0
  0
VERTEX
  5
272
  8
0
  6
CONTINUOUS
 62
     7
 10
2440.055599730967
 20
1643.731835313788
 30
0.0
  0
VERTEX
  5
273
  8
0
  6
CONTINUOUS
 62
     7
 10
2440.05565552873
 20
1643.734661753535
 30
0.0
  0
VERTEX
  5
274
  8
0
  6
CONTINUOUS
 62
     7
 10
2440.055754130321
 20
1643.737557540699
 30
0.0
  0
VERTEX
  5
275
  8
0
  6
CONTINUOUS
 62
     7
 10
2440.05589856653
 20
1643.740520698082
 30
0.0
  0
VERTEX
  5
276
  8
0
  6
CONTINUOUS
 62
     7
 10
2440.056091868153
 20
1643.743549248491
 30
0.0
  0
VERTEX
  5
277
  8
0
  6
CONTINUOUS
 62
     7
 10
2440.056337065983
 20
1643.74664121473
 30
0.0
  0
VERTEX
  5
278
  8
0
  6
CONTINUOUS
 62
     7
 10
2440.056637190814
 20
1643.749794619605
 30
0.0
  0
VERTEX
  5
279
  8
0
  6
CONTINUOUS
 62
     7
 10
2440.056995273441
 20
1643.75300748592
 30
0.0
  0
VERTEX
  5
27A
  8
0
  6
CONTINUOUS
 62
     7
 10
2440.057414344656
 20
1643.756277836481
 30
0.0
  0
VERTEX
  5
27B
  8
0
  6
CONTINUOUS
 62
     7
 10
2440.057897435253
 20
1643.759603694092
 30
0.0
  0
VERTEX
  5
27C
  8
0
  6
CONTINUOUS
 62
     7
 10
2440.058447576027
 20
1643.762983081559
 30
0.0
  0
VERTEX
  5
27D
  8
0
  6
CONTINUOUS
 62
     7
 10
2440.05906779777
 20
1643.766414021687
 30
0.0
  0
VERTEX
  5
27E
  8
0
  6
CONTINUOUS
 62
     7
 10
2440.059761131279
 20
1643.769894537281
 30
0.0
  0
VERTEX
  5
27F
  8
0
  6
CONTINUOUS
 62
     7
 10
2440.060530607344
 20
1643.773422651145
 30
0.0
  0
VERTEX
  5
280
  8
0
  6
CONTINUOUS
 62
     7
 10
2440.061379256761
 20
1643.776996386086
 30
0.0
  0
VERTEX
  5
281
  8
0
  6
CONTINUOUS
 62
     7
 10
2440.062310110323
 20
1643.780613764907
 30
0.0
  0
VERTEX
  5
282
  8
0
  6
CONTINUOUS
 62
     7
 10
2440.063326198826
 20
1643.784272810414
 30
0.0
  0
VERTEX
  5
283
  8
0
  6
CONTINUOUS
 62
     7
 10
2440.06443055306
 20
1643.787971545413
 30
0.0
  0
VERTEX
  5
284
  8
0
  6
CONTINUOUS
 62
     7
 10
2440.065626203822
 20
1643.791707992708
 30
0.0
  0
VERTEX
  5
285
  8
0
  6
CONTINUOUS
 62
     7
 10
2440.066916181904
 20
1643.795480175104
 30
0.0
  0
VERTEX
  5
286
  8
0
  6
CONTINUOUS
 62
     7
 10
2440.0683035181
 20
1643.799286115406
 30
0.0
  0
VERTEX
  5
287
  8
0
  6
CONTINUOUS
 62
     7
 10
2440.069791243206
 20
1643.80312383642
 30
0.0
  0
VERTEX
  5
288
  8
0
  6
CONTINUOUS
 62
     7
 10
2440.071382388013
 20
1643.80699136095
 30
0.0
  0
VERTEX
  5
289
  8
0
  6
CONTINUOUS
 62
     7
 10
2440.073079983316
 20
1643.810886711802
 30
0.0
  0
VERTEX
  5
28A
  8
0
  6
CONTINUOUS
 62
     7
 10
2440.074887072465
 20
1643.814807833958
 30
0.0
  0
VERTEX
  5
28B
  8
0
  6
CONTINUOUS
 62
     7
 10
2440.076806921373
 20
1643.818751292997
 30
0.0
  0
VERTEX
  5
28C
  8
0
  6
CONTINUOUS
 62
     7
 10
2440.078842986954
 20
1643.822712470704
 30
0.0
  0
VERTEX
  5
28D
  8
0
  6
CONTINUOUS
 62
     7
 10
2440.08099873232
 20
1643.826686710449
 30
0.0
  0
VERTEX
  5
28E
  8
0
  6
CONTINUOUS
 62
     7
 10
2440.083277620584
 20
1643.830669355603
 30
0.0
  0
VERTEX
  5
28F
  8
0
  6
CONTINUOUS
 62
     7
 10
2440.085683114857
 20
1643.834655749533
 30
0.0
  0
VERTEX
  5
290
  8
0
  6
CONTINUOUS
 62
     7
 10
2440.088218678252
 20
1643.838641235611
 30
0.0
  0
VERTEX
  5
291
  8
0
  6
CONTINUOUS
 62
     7
 10
2440.090887773883
 20
1643.842621157207
 30
0.0
  0
VERTEX
  5
292
  8
0
  6
CONTINUOUS
 62
     7
 10
2440.093693864858
 20
1643.84659085769
 30
0.0
  0
VERTEX
  5
293
  8
0
  6
CONTINUOUS
 62
     7
 10
2440.096640414294
 20
1643.850545680429
 30
0.0
  0
VERTEX
  5
294
  8
0
  6
CONTINUOUS
 62
     7
 10
2440.099730885301
 20
1643.854480968795
 30
0.0
  0
VERTEX
  5
295
  8
0
  6
CONTINUOUS
 62
     7
 10
2440.102968740991
 20
1643.858392066157
 30
0.0
  0
VERTEX
  5
296
  8
0
  6
CONTINUOUS
 62
     7
 10
2440.106357444477
 20
1643.862274315885
 30
0.0
  0
VERTEX
  5
297
  8
0
  6
CONTINUOUS
 62
     7
 10
2440.109900458871
 20
1643.866123061349
 30
0.0
  0
VERTEX
  5
298
  8
0
  6
CONTINUOUS
 62
     7
 10
2440.113601245678
 20
1643.869933644607
 30
0.0
  0
VERTEX
  5
299
  8
0
  6
CONTINUOUS
 62
     7
 10
2440.117462571549
 20
1643.873700840427
 30
0.0
  0
VERTEX
  5
29A
  8
0
  6
CONTINUOUS
 62
     7
 10
2440.12148542641
 20
1643.877417973037
 30
0.0
  0
VERTEX
  5
29B
  8
0
  6
CONTINUOUS
 62
     7
 10
2440.125670520258
 20
1643.881078138128
 30
0.0
  0
VERTEX
  5
29C
  8
0
  6
CONTINUOUS
 62
     7
 10
2440.130018563091
 20
1643.884674431389
 30
0.0
  0
VERTEX
  5
29D
  8
0
  6
CONTINUOUS
 62
     7
 10
2440.134530264908
 20
1643.888199948512
 30
0.0
  0
VERTEX
  5
29E
  8
0
  6
CONTINUOUS
 62
     7
 10
2440.139206335704
 20
1643.891647785186
 30
0.0
  0
VERTEX
  5
29F
  8
0
  6
CONTINUOUS
 62
     7
 10
2440.14404748548
 20
1643.895011037102
 30
0.0
  0
VERTEX
  5
2A0
  8
0
  6
CONTINUOUS
 62
     7
 10
2440.149054424232
 20
1643.89828279995
 30
0.0
  0
VERTEX
  5
2A1
  8
0
  6
CONTINUOUS
 62
     7
 10
2440.154227861958
 20
1643.901456169421
 30
0.0
  0
VERTEX
  5
2A2
  8
0
  6
CONTINUOUS
 62
     7
 10
2440.159568508651
 20
1643.904524241196
 30
0.0
  0
VERTEX
  5
2A3
  8
0
  6
CONTINUOUS
 62
     7
 10
2440.165075850799
 20
1643.907477559354
 30
0.0
  0
VERTEX
  5
2A4
  8
0
  6
CONTINUOUS
 62
     7
 10
2440.170744708457
 20
1643.910296936212
 30
0.0
  0
VERTEX
  5
2A5
  8
0
  6
CONTINUOUS
 62
     7
 10
2440.176568789341
 20
1643.912960864331
 30
0.0
  0
VERTEX
  5
2A6
  8
0
  6
CONTINUOUS
 62
     7
 10
2440.182541801174
 20
1643.915447836272
 30
0.0
  0
VERTEX
  5
2A7
  8
0
  6
CONTINUOUS
 62
     7
 10
2440.188657451673
 20
1643.917736344595
 30
0.0
  0
VERTEX
  5
2A8
  8
0
  6
CONTINUOUS
 62
     7
 10
2440.19490944856
 20
1643.919804881863
 30
0.0
  0
VERTEX
  5
2A9
  8
0
  6
CONTINUOUS
 62
     7
 10
2440.201291499552
 20
1643.921631940637
 30
0.0
  0
VERTEX
  5
2AA
  8
0
  6
CONTINUOUS
 62
     7
 10
2440.207797080284
 20
1643.923197388619
 30
0.0
  0
VERTEX
  5
2AB
  8
0
  6
CONTINUOUS
 62
     7
 10
2440.214414853355
 20
1643.924509611446
 30
0.0
  0
VERTEX
  5
2AC
  8
0
  6
CONTINUOUS
 62
     7
 10
2440.22112894307
 20
1643.925603884813
 30
0.0
  0
VERTEX
  5
2AD
  8
0
  6
CONTINUOUS
 62
     7
 10
2440.227923296653
 20
1643.926516533632
 30
0.0
  0
VERTEX
  5
2AE
  8
0
  6
CONTINUOUS
 62
     7
 10
2440.234781861333
 20
1643.927283882811
 30
0.0
  0
VERTEX
  5
2AF
  8
0
  6
CONTINUOUS
 62
     7
 10
2440.241688584334
 20
1643.927942257261
 30
0.0
  0
VERTEX
  5
2B0
  8
0
  6
CONTINUOUS
 62
     7
 10
2440.248627412882
 20
1643.928527981891
 30
0.0
  0
VERTEX
  5
2B1
  8
0
  6
CONTINUOUS
 62
     7
 10
2440.255582294204
 20
1643.92907738161
 30
0.0
  0
SEQEND
  5
3B7
  8
0
  6
CONTINUOUS
 62
     7
  0
LINE
  5
CB
  8
0
  6
CONTINUOUS
 62
     7
 10
2440.255582294204
 20
1643.443013283794
 30
0.0
 11
2441.055582294204
 21
1643.443013283794
 31
0.0
  0
LINE
  5
CC
  8
0
  6
CONTINUOUS
 62
     7
 10
2441.055582294204
 20
1643.443013283794
 30
0.0
 11
2441.055582294204
 21
1643.92907738161
 31
0.0
  0
LINE
  5
CD
  8
0
  6
CONTINUOUS
 62
     7
 10
2440.055582294205
 20
1643.62907738161
 30
0.0
 11
2440.055582294205
 21
1643.640226103357
 31
0.0
  0
LINE
  5
CE
  8
0
  6
CONTINUOUS
 62
     7
 10
2441.055582294204
 20
1643.42907738161
 30
0.0
 11
2441.055582294204
 21
1643.443013283794
 31
0.0
  0
LINE
  5
CF
  8
0
  6
CONTINUOUS
 62
     7
 10
2440.055582294205
 20
1643.729077381611
 30
0.0
 11
2440.055582294205
 21
1643.929077381611
 31
0.0
  0
LINE
  5
D0
  8
0
  6
CONTINUOUS
 62
     7
 10
1541.555582294207
 20
1643.443013283794
 30
0.0
 11
2435.555582294206
 21
1643.443013283794
 31
0.0
  0
LINE
  5
D1
  8
0
  6
CONTINUOUS
 62
     7
 10
2435.555582294206
 20
1643.92907738161
 30
0.0
 11
2435.555582294206
 21
1643.443013283794
 31
0.0
  0
LINE
  5
D2
  8
0
  6
CONTINUOUS
 62
     7
 10
2435.555582294206
 20
1643.443013283794
 30
0.0
 11
2435.555582294206
 21
1643.42907738161
 31
0.0
  0
LINE
  5
D3
  8
0
  6
CONTINUOUS
 62
     7
 10
2441.055582294204
 20
1643.443013283794
 30
0.0
 11
3335.055582294204
 21
1643.443013283794
 31
0.0
  0
LINE
  5
D4
  8
0
  6
CONTINUOUS
 62
     7
 10
3335.055582294204
 20
1643.929077381611
 30
0.0
 11
3335.055582294204
 21
1643.443013283794
 31
0.0
  0
LINE
  5
D5
  8
0
  6
CONTINUOUS
 62
     7
 10
3335.055582294204
 20
1643.443013283794
 30
0.0
 11
3335.055582294204
 21
1643.429077381611
 31
0.0
  0
LINE
  5
D6
  8
0
  6
CONTINUOUS
 62
     7
 10
2436.555582294206
 20
1643.729077381611
 30
0.0
 11
2436.555582294206
 21
1643.640226103357
 31
0.0
  0
ARC
  5
D7
  8
0
  6
CONTINUOUS
 62
     7
 10
2436.356966173956
 20
1643.641629541281
 30
0.0
 40
0.1986210785926311
 50
269.6007920655907
 51
359.5951500237986
  0
LINE
  5
D8
  8
0
  6
CONTINUOUS
 62
     7
 10
2436.355582294207
 20
1643.443013283794
 30
0.0
 11
2436.355582294207
 21
1643.92907738161
 31
0.0
  0
POLYLINE
  5
D9
  8
0
  6
CONTINUOUS
 62
     7
 66
     1
 10
0.0
 20
0.0
 30
0.0
  0
VERTEX
  5
2B2
  8
0
  6
CONTINUOUS
 62
     7
 10
2436.555582294206
 20
1643.729077381611
 30
0.0
  0
VERTEX
  5
2B3
  8
0
  6
CONTINUOUS
 62
     7
 10
2436.555564857445
 20
1643.731835313788
 30
0.0
  0
VERTEX
  5
2B4
  8
0
  6
CONTINUOUS
 62
     7
 10
2436.555509059681
 20
1643.734661753536
 30
0.0
  0
VERTEX
  5
2B5
  8
0
  6
CONTINUOUS
 62
     7
 10
2436.555410458092
 20
1643.7375575407
 30
0.0
  0
VERTEX
  5
2B6
  8
0
  6
CONTINUOUS
 62
     7
 10
2436.555266021882
 20
1643.740520698083
 30
0.0
  0
VERTEX
  5
2B7
  8
0
  6
CONTINUOUS
 62
     7
 10
2436.555072720259
 20
1643.743549248491
 30
0.0
  0
VERTEX
  5
2B8
  8
0
  6
CONTINUOUS
 62
     7
 10
2436.554827522429
 20
1643.746641214731
 30
0.0
  0
VERTEX
  5
2B9
  8
0
  6
CONTINUOUS
 62
     7
 10
2436.554527397597
 20
1643.749794619605
 30
0.0
  0
VERTEX
  5
2BA
  8
0
  6
CONTINUOUS
 62
     7
 10
2436.554169314971
 20
1643.75300748592
 30
0.0
  0
VERTEX
  5
2BB
  8
0
  6
CONTINUOUS
 62
     7
 10
2436.553750243756
 20
1643.756277836481
 30
0.0
  0
VERTEX
  5
2BC
  8
0
  6
CONTINUOUS
 62
     7
 10
2436.553267153159
 20
1643.759603694093
 30
0.0
  0
VERTEX
  5
2BD
  8
0
  6
CONTINUOUS
 62
     7
 10
2436.552717012386
 20
1643.762983081559
 30
0.0
  0
VERTEX
  5
2BE
  8
0
  6
CONTINUOUS
 62
     7
 10
2436.552096790641
 20
1643.766414021687
 30
0.0
  0
VERTEX
  5
2BF
  8
0
  6
CONTINUOUS
 62
     7
 10
2436.551403457134
 20
1643.769894537281
 30
0.0
  0
VERTEX
  5
2C0
  8
0
  6
CONTINUOUS
 62
     7
 10
2436.550633981069
 20
1643.773422651145
 30
0.0
  0
VERTEX
  5
2C1
  8
0
  6
CONTINUOUS
 62
     7
 10
2436.549785331651
 20
1643.776996386086
 30
0.0
  0
VERTEX
  5
2C2
  8
0
  6
CONTINUOUS
 62
     7
 10
2436.548854478088
 20
1643.780613764907
 30
0.0
  0
VERTEX
  5
2C3
  8
0
  6
CONTINUOUS
 62
     7
 10
2436.547838389587
 20
1643.784272810415
 30
0.0
  0
VERTEX
  5
2C4
  8
0
  6
CONTINUOUS
 62
     7
 10
2436.546734035352
 20
1643.787971545413
 30
0.0
  0
VERTEX
  5
2C5
  8
0
  6
CONTINUOUS
 62
     7
 10
2436.54553838459
 20
1643.791707992708
 30
0.0
  0
VERTEX
  5
2C6
  8
0
  6
CONTINUOUS
 62
     7
 10
2436.544248406508
 20
1643.795480175104
 30
0.0
  0
VERTEX
  5
2C7
  8
0
  6
CONTINUOUS
 62
     7
 10
2436.542861070311
 20
1643.799286115407
 30
0.0
  0
VERTEX
  5
2C8
  8
0
  6
CONTINUOUS
 62
     7
 10
2436.541373345206
 20
1643.803123836421
 30
0.0
  0
VERTEX
  5
2C9
  8
0
  6
CONTINUOUS
 62
     7
 10
2436.539782200398
 20
1643.806991360951
 30
0.0
  0
VERTEX
  5
2CA
  8
0
  6
CONTINUOUS
 62
     7
 10
2436.538084605095
 20
1643.810886711803
 30
0.0
  0
VERTEX
  5
2CB
  8
0
  6
CONTINUOUS
 62
     7
 10
2436.536277515946
 20
1643.814807833958
 30
0.0
  0
VERTEX
  5
2CC
  8
0
  6
CONTINUOUS
 62
     7
 10
2436.534357667038
 20
1643.818751292996
 30
0.0
  0
VERTEX
  5
2CD
  8
0
  6
CONTINUOUS
 62
     7
 10
2436.532321601458
 20
1643.822712470704
 30
0.0
  0
VERTEX
  5
2CE
  8
0
  6
CONTINUOUS
 62
     7
 10
2436.530165856091
 20
1643.826686710449
 30
0.0
  0
VERTEX
  5
2CF
  8
0
  6
CONTINUOUS
 62
     7
 10
2436.527886967827
 20
1643.830669355602
 30
0.0
  0
VERTEX
  5
2D0
  8
0
  6
CONTINUOUS
 62
     7
 10
2436.525481473554
 20
1643.834655749533
 30
0.0
  0
VERTEX
  5
2D1
  8
0
  6
CONTINUOUS
 62
     7
 10
2436.522945910159
 20
1643.838641235612
 30
0.0
  0
VERTEX
  5
2D2
  8
0
  6
CONTINUOUS
 62
     7
 10
2436.520276814529
 20
1643.842621157207
 30
0.0
  0
VERTEX
  5
2D3
  8
0
  6
CONTINUOUS
 62
     7
 10
2436.517470723552
 20
1643.84659085769
 30
0.0
  0
VERTEX
  5
2D4
  8
0
  6
CONTINUOUS
 62
     7
 10
2436.514524174117
 20
1643.850545680429
 30
0.0
  0
VERTEX
  5
2D5
  8
0
  6
CONTINUOUS
 62
     7
 10
2436.51143370311
 20
1643.854480968794
 30
0.0
  0
VERTEX
  5
2D6
  8
0
  6
CONTINUOUS
 62
     7
 10
2436.50819584742
 20
1643.858392066157
 30
0.0
  0
VERTEX
  5
2D7
  8
0
  6
CONTINUOUS
 62
     7
 10
2436.504807143934
 20
1643.862274315885
 30
0.0
  0
VERTEX
  5
2D8
  8
0
  6
CONTINUOUS
 62
     7
 10
2436.50126412954
 20
1643.866123061349
 30
0.0
  0
VERTEX
  5
2D9
  8
0
  6
CONTINUOUS
 62
     7
 10
2436.497563342733
 20
1643.869933644607
 30
0.0
  0
VERTEX
  5
2DA
  8
0
  6
CONTINUOUS
 62
     7
 10
2436.493702016863
 20
1643.873700840427
 30
0.0
  0
VERTEX
  5
2DB
  8
0
  6
CONTINUOUS
 62
     7
 10
2436.489679162002
 20
1643.877417973038
 30
0.0
  0
VERTEX
  5
2DC
  8
0
  6
CONTINUOUS
 62
     7
 10
2436.485494068153
 20
1643.881078138128
 30
0.0
  0
VERTEX
  5
2DD
  8
0
  6
CONTINUOUS
 62
     7
 10
2436.48114602532
 20
1643.884674431389
 30
0.0
  0
VERTEX
  5
2DE
  8
0
  6
CONTINUOUS
 62
     7
 10
2436.476634323504
 20
1643.888199948512
 30
0.0
  0
VERTEX
  5
2DF
  8
0
  6
CONTINUOUS
 62
     7
 10
2436.471958252707
 20
1643.891647785186
 30
0.0
  0
VERTEX
  5
2E0
  8
0
  6
CONTINUOUS
 62
     7
 10
2436.467117102931
 20
1643.895011037102
 30
0.0
  0
VERTEX
  5
2E1
  8
0
  6
CONTINUOUS
 62
     7
 10
2436.46211016418
 20
1643.898282799951
 30
0.0
  0
VERTEX
  5
2E2
  8
0
  6
CONTINUOUS
 62
     7
 10
2436.456936726453
 20
1643.901456169421
 30
0.0
  0
VERTEX
  5
2E3
  8
0
  6
CONTINUOUS
 62
     7
 10
2436.45159607976
 20
1643.904524241196
 30
0.0
  0
VERTEX
  5
2E4
  8
0
  6
CONTINUOUS
 62
     7
 10
2436.446088737611
 20
1643.907477559354
 30
0.0
  0
VERTEX
  5
2E5
  8
0
  6
CONTINUOUS
 62
     7
 10
2436.440419879954
 20
1643.910296936213
 30
0.0
  0
VERTEX
  5
2E6
  8
0
  6
CONTINUOUS
 62
     7
 10
2436.434595799069
 20
1643.912960864332
 30
0.0
  0
VERTEX
  5
2E7
  8
0
  6
CONTINUOUS
 62
     7
 10
2436.428622787237
 20
1643.915447836272
 30
0.0
  0
VERTEX
  5
2E8
  8
0
  6
CONTINUOUS
 62
     7
 10
2436.422507136737
 20
1643.917736344595
 30
0.0
  0
VERTEX
  5
2E9
  8
0
  6
CONTINUOUS
 62
     7
 10
2436.416255139851
 20
1643.919804881863
 30
0.0
  0
VERTEX
  5
2EA
  8
0
  6
CONTINUOUS
 62
     7
 10
2436.409873088859
 20
1643.921631940637
 30
0.0
  0
VERTEX
  5
2EB
  8
0
  6
CONTINUOUS
 62
     7
 10
2436.403367508127
 20
1643.923197388618
 30
0.0
  0
VERTEX
  5
2EC
  8
0
  6
CONTINUOUS
 62
     7
 10
2436.396749735056
 20
1643.924509611445
 30
0.0
  0
VERTEX
  5
2ED
  8
0
  6
CONTINUOUS
 62
     7
 10
2436.390035645341
 20
1643.925603884813
 30
0.0
  0
VERTEX
  5
2EE
  8
0
  6
CONTINUOUS
 62
     7
 10
2436.383241291758
 20
1643.926516533632
 30
0.0
  0
VERTEX
  5
2EF
  8
0
  6
CONTINUOUS
 62
     7
 10
2436.376382727078
 20
1643.927283882811
 30
0.0
  0
VERTEX
  5
2F0
  8
0
  6
CONTINUOUS
 62
     7
 10
2436.369476004078
 20
1643.92794225726
 30
0.0
  0
VERTEX
  5
2F1
  8
0
  6
CONTINUOUS
 62
     7
 10
2436.362537175529
 20
1643.928527981891
 30
0.0
  0
VERTEX
  5
2F2
  8
0
  6
CONTINUOUS
 62
     7
 10
2436.355582294207
 20
1643.92907738161
 30
0.0
  0
SEQEND
  5
3B8
  8
0
  6
CONTINUOUS
 62
     7
  0
LINE
  5
DA
  8
0
  6
CONTINUOUS
 62
     7
 10
2435.555582294206
 20
1643.443013283794
 30
0.0
 11
2436.355582294207
 21
1643.443013283794
 31
0.0
  0
LINE
  5
DB
  8
0
  6
CONTINUOUS
 62
     7
 10
2436.555582294206
 20
1643.640226103357
 30
0.0
 11
2436.555582294206
 21
1643.62907738161
 31
0.0
  0
LINE
  5
DC
  8
0
  6
CONTINUOUS
 62
     7
 10
2436.555582294206
 20
1643.92907738161
 30
0.0
 11
2436.555582294206
 21
1643.729077381611
 31
0.0
  0
LINE
  5
DD
  8
0
  6
CONTINUOUS
 62
     7
 10
3336.055582294204
 20
1643.729077381611
 30
0.0
 11
3336.055582294204
 21
1643.640226103358
 31
0.0
  0
ARC
  5
DE
  8
0
  6
CONTINUOUS
 62
     7
 10
3335.856966173954
 20
1643.641629541281
 30
0.0
 40
0.1986210785919101
 50
269.6007920651962
 51
359.5951500238623
  0
LINE
  5
DF
  8
0
  6
CONTINUOUS
 62
     7
 10
3335.855582294204
 20
1643.443013283794
 30
0.0
 11
3335.855582294204
 21
1643.929077381611
 31
0.0
  0
POLYLINE
  5
E0
  8
0
  6
CONTINUOUS
 62
     7
 66
     1
 10
0.0
 20
0.0
 30
0.0
  0
VERTEX
  5
2F3
  8
0
  6
CONTINUOUS
 62
     7
 10
3336.055582294204
 20
1643.729077381611
 30
0.0
  0
VERTEX
  5
2F4
  8
0
  6
CONTINUOUS
 62
     7
 10
3336.055564857442
 20
1643.731835313788
 30
0.0
  0
VERTEX
  5
2F5
  8
0
  6
CONTINUOUS
 62
     7
 10
3336.055509059679
 20
1643.734661753537
 30
0.0
  0
VERTEX
  5
2F6
  8
0
  6
CONTINUOUS
 62
     7
 10
3336.05541045809
 20
1643.7375575407
 30
0.0
  0
VERTEX
  5
2F7
  8
0
  6
CONTINUOUS
 62
     7
 10
3336.05526602188
 20
1643.740520698083
 30
0.0
  0
VERTEX
  5
2F8
  8
0
  6
CONTINUOUS
 62
     7
 10
3336.055072720258
 20
1643.743549248492
 30
0.0
  0
VERTEX
  5
2F9
  8
0
  6
CONTINUOUS
 62
     7
 10
3336.054827522427
 20
1643.746641214731
 30
0.0
  0
VERTEX
  5
2FA
  8
0
  6
CONTINUOUS
 62
     7
 10
3336.054527397597
 20
1643.749794619606
 30
0.0
  0
VERTEX
  5
2FB
  8
0
  6
CONTINUOUS
 62
     7
 10
3336.05416931497
 20
1643.753007485921
 30
0.0
  0
VERTEX
  5
2FC
  8
0
  6
CONTINUOUS
 62
     7
 10
3336.053750243755
 20
1643.756277836482
 30
0.0
  0
VERTEX
  5
2FD
  8
0
  6
CONTINUOUS
 62
     7
 10
3336.053267153158
 20
1643.759603694093
 30
0.0
  0
VERTEX
  5
2FE
  8
0
  6
CONTINUOUS
 62
     7
 10
3336.052717012385
 20
1643.76298308156
 30
0.0
  0
VERTEX
  5
2FF
  8
0
  6
CONTINUOUS
 62
     7
 10
3336.05209679064
 20
1643.766414021688
 30
0.0
  0
VERTEX
  5
300
  8
0
  6
CONTINUOUS
 62
     7
 10
3336.051403457133
 20
1643.769894537281
 30
0.0
  0
VERTEX
  5
301
  8
0
  6
CONTINUOUS
 62
     7
 10
3336.050633981067
 20
1643.773422651146
 30
0.0
  0
VERTEX
  5
302
  8
0
  6
CONTINUOUS
 62
     7
 10
3336.04978533165
 20
1643.776996386086
 30
0.0
  0
VERTEX
  5
303
  8
0
  6
CONTINUOUS
 62
     7
 10
3336.048854478087
 20
1643.780613764907
 30
0.0
  0
VERTEX
  5
304
  8
0
  6
CONTINUOUS
 62
     7
 10
3336.047838389585
 20
1643.784272810415
 30
0.0
  0
VERTEX
  5
305
  8
0
  6
CONTINUOUS
 62
     7
 10
3336.04673403535
 20
1643.787971545414
 30
0.0
  0
VERTEX
  5
306
  8
0
  6
CONTINUOUS
 62
     7
 10
3336.045538384589
 20
1643.791707992709
 30
0.0
  0
VERTEX
  5
307
  8
0
  6
CONTINUOUS
 62
     7
 10
3336.044248406507
 20
1643.795480175105
 30
0.0
  0
VERTEX
  5
308
  8
0
  6
CONTINUOUS
 62
     7
 10
3336.04286107031
 20
1643.799286115407
 30
0.0
  0
VERTEX
  5
309
  8
0
  6
CONTINUOUS
 62
     7
 10
3336.041373345204
 20
1643.803123836421
 30
0.0
  0
VERTEX
  5
30A
  8
0
  6
CONTINUOUS
 62
     7
 10
3336.039782200397
 20
1643.806991360951
 30
0.0
  0
VERTEX
  5
30B
  8
0
  6
CONTINUOUS
 62
     7
 10
3336.038084605093
 20
1643.810886711803
 30
0.0
  0
VERTEX
  5
30C
  8
0
  6
CONTINUOUS
 62
     7
 10
3336.036277515944
 20
1643.814807833958
 30
0.0
  0
VERTEX
  5
30D
  8
0
  6
CONTINUOUS
 62
     7
 10
3336.034357667035
 20
1643.818751292997
 30
0.0
  0
VERTEX
  5
30E
  8
0
  6
CONTINUOUS
 62
     7
 10
3336.032321601454
 20
1643.822712470704
 30
0.0
  0
VERTEX
  5
30F
  8
0
  6
CONTINUOUS
 62
     7
 10
3336.030165856088
 20
1643.826686710449
 30
0.0
  0
VERTEX
  5
310
  8
0
  6
CONTINUOUS
 62
     7
 10
3336.027886967825
 20
1643.830669355603
 30
0.0
  0
VERTEX
  5
311
  8
0
  6
CONTINUOUS
 62
     7
 10
3336.025481473551
 20
1643.834655749533
 30
0.0
  0
VERTEX
  5
312
  8
0
  6
CONTINUOUS
 62
     7
 10
3336.022945910156
 20
1643.838641235612
 30
0.0
  0
VERTEX
  5
313
  8
0
  6
CONTINUOUS
 62
     7
 10
3336.020276814526
 20
1643.842621157207
 30
0.0
  0
VERTEX
  5
314
  8
0
  6
CONTINUOUS
 62
     7
 10
3336.01747072355
 20
1643.84659085769
 30
0.0
  0
VERTEX
  5
315
  8
0
  6
CONTINUOUS
 62
     7
 10
3336.014524174114
 20
1643.850545680429
 30
0.0
  0
VERTEX
  5
316
  8
0
  6
CONTINUOUS
 62
     7
 10
3336.011433703107
 20
1643.854480968795
 30
0.0
  0
VERTEX
  5
317
  8
0
  6
CONTINUOUS
 62
     7
 10
3336.008195847418
 20
1643.858392066157
 30
0.0
  0
VERTEX
  5
318
  8
0
  6
CONTINUOUS
 62
     7
 10
3336.004807143931
 20
1643.862274315886
 30
0.0
  0
VERTEX
  5
319
  8
0
  6
CONTINUOUS
 62
     7
 10
3336.001264129537
 20
1643.86612306135
 30
0.0
  0
VERTEX
  5
31A
  8
0
  6
CONTINUOUS
 62
     7
 10
3335.997563342731
 20
1643.869933644607
 30
0.0
  0
VERTEX
  5
31B
  8
0
  6
CONTINUOUS
 62
     7
 10
3335.99370201686
 20
1643.873700840427
 30
0.0
  0
VERTEX
  5
31C
  8
0
  6
CONTINUOUS
 62
     7
 10
3335.989679161999
 20
1643.877417973038
 30
0.0
  0
VERTEX
  5
31D
  8
0
  6
CONTINUOUS
 62
     7
 10
3335.985494068151
 20
1643.881078138129
 30
0.0
  0
VERTEX
  5
31E
  8
0
  6
CONTINUOUS
 62
     7
 10
3335.981146025317
 20
1643.88467443139
 30
0.0
  0
VERTEX
  5
31F
  8
0
  6
CONTINUOUS
 62
     7
 10
3335.976634323501
 20
1643.888199948512
 30
0.0
  0
VERTEX
  5
320
  8
0
  6
CONTINUOUS
 62
     7
 10
3335.971958252704
 20
1643.891647785186
 30
0.0
  0
VERTEX
  5
321
  8
0
  6
CONTINUOUS
 62
     7
 10
3335.967117102929
 20
1643.895011037103
 30
0.0
  0
VERTEX
  5
322
  8
0
  6
CONTINUOUS
 62
     7
 10
3335.962110164178
 20
1643.898282799951
 30
0.0
  0
VERTEX
  5
323
  8
0
  6
CONTINUOUS
 62
     7
 10
3335.956936726451
 20
1643.901456169422
 30
0.0
  0
VERTEX
  5
324
  8
0
  6
CONTINUOUS
 62
     7
 10
3335.951596079757
 20
1643.904524241196
 30
0.0
  0
VERTEX
  5
325
  8
0
  6
CONTINUOUS
 62
     7
 10
3335.946088737609
 20
1643.907477559355
 30
0.0
  0
VERTEX
  5
326
  8
0
  6
CONTINUOUS
 62
     7
 10
3335.940419879952
 20
1643.910296936213
 30
0.0
  0
VERTEX
  5
327
  8
0
  6
CONTINUOUS
 62
     7
 10
3335.934595799068
 20
1643.912960864332
 30
0.0
  0
VERTEX
  5
328
  8
0
  6
CONTINUOUS
 62
     7
 10
3335.928622787235
 20
1643.915447836273
 30
0.0
  0
VERTEX
  5
329
  8
0
  6
CONTINUOUS
 62
     7
 10
3335.922507136735
 20
1643.917736344596
 30
0.0
  0
VERTEX
  5
32A
  8
0
  6
CONTINUOUS
 62
     7
 10
3335.916255139849
 20
1643.919804881863
 30
0.0
  0
VERTEX
  5
32B
  8
0
  6
CONTINUOUS
 62
     7
 10
3335.909873088857
 20
1643.921631940637
 30
0.0
  0
VERTEX
  5
32C
  8
0
  6
CONTINUOUS
 62
     7
 10
3335.903367508124
 20
1643.923197388619
 30
0.0
  0
VERTEX
  5
32D
  8
0
  6
CONTINUOUS
 62
     7
 10
3335.896749735054
 20
1643.924509611446
 30
0.0
  0
VERTEX
  5
32E
  8
0
  6
CONTINUOUS
 62
     7
 10
3335.890035645338
 20
1643.925603884813
 30
0.0
  0
VERTEX
  5
32F
  8
0
  6
CONTINUOUS
 62
     7
 10
3335.883241291755
 20
1643.926516533632
 30
0.0
  0
VERTEX
  5
330
  8
0
  6
CONTINUOUS
 62
     7
 10
3335.876382727075
 20
1643.927283882811
 30
0.0
  0
VERTEX
  5
331
  8
0
  6
CONTINUOUS
 62
     7
 10
3335.869476004075
 20
1643.927942257261
 30
0.0
  0
VERTEX
  5
332
  8
0
  6
CONTINUOUS
 62
     7
 10
3335.862537175527
 20
1643.928527981891
 30
0.0
  0
VERTEX
  5
333
  8
0
  6
CONTINUOUS
 62
     7
 10
3335.855582294204
 20
1643.929077381611
 30
0.0
  0
SEQEND
  5
3B9
  8
0
  6
CONTINUOUS
 62
     7
  0
LINE
  5
E1
  8
0
  6
CONTINUOUS
 62
     7
 10
3335.055582294204
 20
1643.443013283794
 30
0.0
 11
3335.855582294204
 21
1643.443013283794
 31
0.0
  0
LINE
  5
E2
  8
0
  6
CONTINUOUS
 62
     7
 10
3336.055582294204
 20
1643.640226103358
 30
0.0
 11
3336.055582294204
 21
1643.629077381611
 31
0.0
  0
LINE
  5
E3
  8
0
  6
CONTINUOUS
 62
     7
 10
3336.055582294204
 20
1643.929077381611
 30
0.0
 11
3336.055582294204
 21
1643.729077381611
 31
0.0
  0
LINE
  5
E4
  8
0
  6
CONTINUOUS
 62
     7
 10
2436.555582294206
 20
1874.929077381612
 30
0.0
 11
2439.555582294205
 21
1874.929077381612
 31
0.0
  0
LINE
  5
E5
  8
0
  6
CONTINUOUS
 62
     7
 10
3321.055582294207
 20
1891.929077381612
 30
0.0
 11
1555.055582294207
 21
1891.929077381611
 31
0.0
  0
LINE
  5
E6
  8
0
  6
CONTINUOUS
 62
     7
 10
1538.055582294207
 20
1642.929077381612
 30
0.0
 11
1555.055582294207
 21
1642.929077381612
 31
0.0
  0
LINE
  5
E7
  8
0
  6
CONTINUOUS
 62
     7
 10
1555.055582294207
 20
1642.929077381612
 30
0.0
 11
1555.055582294207
 21
1643.42907738161
 31
0.0
  0
LINE
  5
E8
  8
0
  6
CONTINUOUS
 62
     7
 10
1555.055582294205
 20
1890.929077381613
 30
0.0
 11
1555.055582294205
 21
1891.929077381613
 31
0.0
  0
LINE
  5
E9
  8
0
  6
CONTINUOUS
 62
     7
 10
1538.055582294205
 20
1891.929077381613
 30
0.0
 11
1538.055582294207
 21
1642.929077381612
 31
0.0
  0
LINE
  5
EA
  8
0
  6
CONTINUOUS
 62
     7
 10
1555.055582294205
 20
1891.929077381613
 30
0.0
 11
1538.055582294205
 21
1891.929077381613
 31
0.0
  0
LINE
  5
EB
  8
0
  6
CONTINUOUS
 62
     7
 10
3321.055582294207
 20
1642.929077381612
 30
0.0
 11
3338.055582294207
 21
1642.929077381612
 31
0.0
  0
LINE
  5
EC
  8
0
  6
CONTINUOUS
 62
     7
 10
3338.055582294207
 20
1642.929077381612
 30
0.0
 11
3338.055582294205
 21
1891.929077381613
 31
0.0
  0
LINE
  5
ED
  8
0
  6
CONTINUOUS
 62
     7
 10
3321.055582294205
 20
1891.929077381613
 30
0.0
 11
3321.055582294205
 21
1890.929077381613
 31
0.0
  0
LINE
  5
EE
  8
0
  6
CONTINUOUS
 62
     7
 10
3321.055582294207
 20
1643.429077381611
 30
0.0
 11
3321.055582294207
 21
1642.929077381612
 31
0.0
  0
LINE
  5
EF
  8
0
  6
CONTINUOUS
 62
     7
 10
3338.055582294205
 20
1891.929077381613
 30
0.0
 11
3321.055582294205
 21
1891.929077381613
 31
0.0
  0
LINE
  5
F0
  8
0
  6
CONTINUOUS
 62
     7
 10
3338.055582294205
 20
1892.429077381611
 30
0.0
 11
3338.055582294205
 21
1891.929077381613
 31
0.0
  0
LINE
  5
F1
  8
0
  6
CONTINUOUS
 62
     7
 10
3321.055582294205
 20
1892.429077381611
 30
0.0
 11
3338.055582294205
 21
1892.429077381611
 31
0.0
  0
LINE
  5
F2
  8
0
  6
CONTINUOUS
 62
     7
 10
3321.055582294205
 20
1892.429077381611
 30
0.0
 11
3321.055582294205
 21
1891.929077381613
 31
0.0
  0
LINE
  5
F3
  8
0
  6
CONTINUOUS
 62
     7
 10
1555.055582294205
 20
1892.429077381611
 30
0.0
 11
1555.055582294205
 21
1891.929077381613
 31
0.0
  0
LINE
  5
F4
  8
0
  6
CONTINUOUS
 62
     7
 10
1538.055582294205
 20
1892.429077381611
 30
0.0
 11
1555.055582294205
 21
1892.429077381611
 31
0.0
  0
LINE
  5
F5
  8
0
  6
CONTINUOUS
 62
     7
 10
1538.055582294205
 20
1892.429077381611
 30
0.0
 11
1538.055582294205
 21
1891.929077381613
 31
0.0
  0
LINE
  5
F6
  8
0
  6
CONTINUOUS
 62
     7
 10
3321.055582294207
 20
1642.429077381612
 30
0.0
 11
3338.055582294207
 21
1642.429077381612
 31
0.0
  0
LINE
  5
F7
  8
0
  6
CONTINUOUS
 62
     7
 10
3321.055582294207
 20
1642.429077381612
 30
0.0
 11
3321.055582294207
 21
1642.929077381612
 31
0.0
  0
LINE
  5
F8
  8
0
  6
CONTINUOUS
 62
     7
 10
3338.055582294207
 20
1642.429077381612
 30
0.0
 11
3338.055582294207
 21
1642.929077381612
 31
0.0
  0
LINE
  5
F9
  8
0
  6
CONTINUOUS
 62
     7
 10
1538.055582294207
 20
1642.429077381612
 30
0.0
 11
1555.055582294207
 21
1642.429077381612
 31
0.0
  0
LINE
  5
FA
  8
0
  6
CONTINUOUS
 62
     7
 10
1538.055582294207
 20
1642.429077381612
 30
0.0
 11
1538.055582294207
 21
1642.929077381612
 31
0.0
  0
LINE
  5
FB
  8
0
  6
CONTINUOUS
 62
     7
 10
1555.055582294207
 20
1642.429077381612
 30
0.0
 11
1555.055582294207
 21
1642.929077381612
 31
0.0
  0
LINE
  5
FC
  8
0
  6
CONTINUOUS
 62
     8
 10
1540.755582294207
 20
1643.443013283794
 30
0.0
 11
1540.755582294207
 21
1643.42907738161
 31
0.0
  0
LINE
  5
FD
  8
0
  6
CONTINUOUS
 62
     8
 10
2440.255582294204
 20
1643.443013283794
 30
0.0
 11
2440.255582294204
 21
1643.42907738161
 31
0.0
  0
LINE
  5
FE
  8
0
  6
CONTINUOUS
 62
     8
 10
2436.355582294207
 20
1643.42907738161
 30
0.0
 11
2436.355582294207
 21
1643.443013283794
 31
0.0
  0
LINE
  5
FF
  8
0
  6
CONTINUOUS
 62
     8
 10
3335.855582294204
 20
1643.429077381611
 30
0.0
 11
3335.855582294204
 21
1643.443013283794
 31
0.0
  0
LINE
  5
100
  8
0
  6
CONTINUOUS
 62
     7
 10
2439.555582294205
 20
2637.151635982847
 30
0.0
 11
3336.055582294204
 21
2637.151635982847
 31
0.0
  0
LINE
  5
101
  8
0
  6
CONTINUOUS
 62
     7
 10
3336.055582294204
 20
2622.151635982847
 30
0.0
 11
3336.055582294204
 21
2637.151635982847
 31
0.0
  0
ARC
  5
102
  8
0
  6
CONTINUOUS
 62
     7
 10
3333.055582294204
 20
2622.151635982847
 30
0.0
 40
3.0
 50
270.0000000000008
 51
0.0
  0
LINE
  5
103
  8
0
  6
CONTINUOUS
 62
     7
 10
2442.555582294205
 20
2619.151635982847
 30
0.0
 11
3333.055582294204
 21
2619.151635982847
 31
0.0
  0
ARC
  5
104
  8
0
  6
CONTINUOUS
 62
     7
 10
2442.555582294205
 20
2622.151635982847
 30
0.0
 40
3.0
 50
180.0
 51
270.0000000000008
  0
LINE
  5
105
  8
0
  6
CONTINUOUS
 62
     7
 10
2439.555582294205
 20
2622.151635982847
 30
0.0
 11
2439.555582294205
 21
2637.151635982847
 31
0.0
  0
LINE
  5
106
  8
0
  6
CONTINUOUS
 62
     7
 10
2436.555582294206
 20
2622.151635982847
 30
0.0
 11
2436.555582294206
 21
2637.151635982847
 31
0.0
  0
ARC
  5
107
  8
0
  6
CONTINUOUS
 62
     7
 10
2433.555582294206
 20
2622.151635982847
 30
0.0
 40
3.0
 50
270.0000000000008
 51
0.0
  0
LINE
  5
108
  8
0
  6
CONTINUOUS
 62
     7
 10
1543.055582294208
 20
2619.151635982847
 30
0.0
 11
2433.555582294206
 21
2619.151635982847
 31
0.0
  0
ARC
  5
109
  8
0
  6
CONTINUOUS
 62
     7
 10
1543.055582294208
 20
2622.151635982846
 30
0.0
 40
3.0
 50
180.0
 51
270.0000000000008
  0
LINE
  5
10A
  8
0
  6
CONTINUOUS
 62
     7
 10
1540.055582294208
 20
2622.151635982846
 30
0.0
 11
1540.055582294208
 21
2637.151635982846
 31
0.0
  0
LINE
  5
10B
  8
0
  6
CONTINUOUS
 62
     7
 10
1540.055582294208
 20
2637.151635982846
 30
0.0
 11
2436.555582294206
 21
2637.151635982847
 31
0.0
  0
LINE
  5
10C
  8
0
  6
CONTINUOUS
 62
     7
 10
1541.555582294207
 20
2637.251635982848
 30
0.0
 11
1540.755582294207
 21
2637.251635982848
 31
0.0
  0
LINE
  5
10D
  8
0
  6
CONTINUOUS
 62
     7
 10
1540.755582294207
 20
2637.451635982848
 30
0.0
 11
1540.755582294207
 21
2637.251635982848
 31
0.0
  0
LINE
  5
10E
  8
0
  6
CONTINUOUS
 62
     7
 10
1541.555582294207
 20
2637.451635982848
 30
0.0
 11
1541.555582294207
 21
2637.251635982848
 31
0.0
  0
LINE
  5
10F
  8
0
  6
CONTINUOUS
 62
     7
 10
1540.755582294207
 20
2637.251635982848
 30
0.0
 11
1540.555582294207
 21
2637.251635982848
 31
0.0
  0
ARC
  5
110
  8
0
  6
CONTINUOUS
 62
     7
 10
1540.755582294207
 20
2637.251635982848
 30
0.0
 40
0.2000000000000455
 50
90.0
 51
179.9999999999919
  0
LINE
  5
111
  8
0
  6
CONTINUOUS
 62
     7
 10
1540.555582294207
 20
2637.151635982845
 30
0.0
 11
1540.555582294207
 21
2637.251635982848
 31
0.0
  0
LINE
  5
112
  8
0
  6
CONTINUOUS
 62
     7
 10
1541.555582294207
 20
2637.151635982845
 30
0.0
 11
1541.555582294207
 21
2637.251635982848
 31
0.0
  0
LINE
  5
113
  8
0
  6
CONTINUOUS
 62
     7
 10
2440.255582294204
 20
2637.251635982848
 30
0.0
 11
2440.055582294205
 21
2637.251635982848
 31
0.0
  0
ARC
  5
114
  8
0
  6
CONTINUOUS
 62
     7
 10
2440.255582294204
 20
2637.251635982848
 30
0.0
 40
0.1999999999998181
 50
90.0
 51
179.9999999999919
  0
LINE
  5
115
  8
0
  6
CONTINUOUS
 62
     7
 10
2440.255582294204
 20
2637.451635982848
 30
0.0
 11
2440.255582294204
 21
2637.251635982848
 31
0.0
  0
LINE
  5
116
  8
0
  6
CONTINUOUS
 62
     7
 10
2440.055582294205
 20
2637.151635982846
 30
0.0
 11
2440.055582294205
 21
2637.251635982848
 31
0.0
  0
LINE
  5
117
  8
0
  6
CONTINUOUS
 62
     7
 10
2441.055582294204
 20
2637.251635982848
 30
0.0
 11
2440.255582294204
 21
2637.251635982848
 31
0.0
  0
LINE
  5
118
  8
0
  6
CONTINUOUS
 62
     7
 10
2440.255582294204
 20
2637.451635982848
 30
0.0
 11
2441.055582294204
 21
2637.451635982848
 31
0.0
  0
LINE
  5
119
  8
0
  6
CONTINUOUS
 62
     7
 10
2441.055582294204
 20
2637.451635982848
 30
0.0
 11
2441.055582294204
 21
2637.251635982848
 31
0.0
  0
LINE
  5
11A
  8
0
  6
CONTINUOUS
 62
     7
 10
2441.055582294204
 20
2637.151635982846
 30
0.0
 11
2441.055582294204
 21
2637.251635982848
 31
0.0
  0
LINE
  5
11B
  8
0
  6
CONTINUOUS
 62
     7
 10
1555.055582294207
 20
2637.451635982848
 30
0.0
 11
2435.555582294206
 21
2637.451635982848
 31
0.0
  0
LINE
  5
11C
  8
0
  6
CONTINUOUS
 62
     7
 10
2435.555582294206
 20
2637.251635982848
 30
0.0
 11
2435.555582294206
 21
2637.451635982848
 31
0.0
  0
LINE
  5
11D
  8
0
  6
CONTINUOUS
 62
     7
 10
2435.555582294206
 20
2637.251635982848
 30
0.0
 11
1541.555582294207
 21
2637.251635982848
 31
0.0
  0
LINE
  5
11E
  8
0
  6
CONTINUOUS
 62
     7
 10
2435.555582294206
 20
2637.251635982848
 30
0.0
 11
2435.555582294206
 21
2637.151635982846
 31
0.0
  0
LINE
  5
11F
  8
0
  6
CONTINUOUS
 62
     7
 10
2441.055582294204
 20
2637.451635982848
 30
0.0
 11
3321.055582294205
 21
2637.451635982847
 31
0.0
  0
LINE
  5
120
  8
0
  6
CONTINUOUS
 62
     7
 10
3335.055582294204
 20
2637.251635982847
 30
0.0
 11
3335.055582294204
 21
2637.451635982847
 31
0.0
  0
LINE
  5
121
  8
0
  6
CONTINUOUS
 62
     7
 10
3335.055582294204
 20
2637.251635982847
 30
0.0
 11
2441.055582294204
 21
2637.251635982848
 31
0.0
  0
LINE
  5
122
  8
0
  6
CONTINUOUS
 62
     7
 10
3335.055582294204
 20
2637.251635982847
 30
0.0
 11
3335.055582294204
 21
2637.151635982846
 31
0.0
  0
LINE
  5
123
  8
0
  6
CONTINUOUS
 62
     7
 10
2436.355582294207
 20
2637.251635982848
 30
0.0
 11
2436.555582294206
 21
2637.251635982848
 31
0.0
  0
LINE
  5
124
  8
0
  6
CONTINUOUS
 62
     7
 10
2436.555582294206
 20
2637.251635982848
 30
0.0
 11
2436.555582294206
 21
2637.151635982846
 31
0.0
  0
ARC
  5
125
  8
0
  6
CONTINUOUS
 62
     7
 10
2436.355582294207
 20
2637.251635982848
 30
0.0
 40
0.1999999999998181
 50
0.0
 51
90.0
  0
LINE
  5
126
  8
0
  6
CONTINUOUS
 62
     7
 10
2436.355582294207
 20
2637.251635982848
 30
0.0
 11
2436.355582294207
 21
2637.451635982848
 31
0.0
  0
LINE
  5
127
  8
0
  6
CONTINUOUS
 62
     7
 10
2435.555582294206
 20
2637.451635982848
 30
0.0
 11
2436.355582294207
 21
2637.451635982848
 31
0.0
  0
LINE
  5
128
  8
0
  6
CONTINUOUS
 62
     7
 10
2436.355582294207
 20
2637.251635982848
 30
0.0
 11
2435.555582294206
 21
2637.251635982848
 31
0.0
  0
LINE
  5
129
  8
0
  6
CONTINUOUS
 62
     7
 10
3335.855582294204
 20
2637.251635982847
 30
0.0
 11
3336.055582294204
 21
2637.251635982847
 31
0.0
  0
LINE
  5
12A
  8
0
  6
CONTINUOUS
 62
     7
 10
3336.055582294204
 20
2637.251635982847
 30
0.0
 11
3336.055582294204
 21
2637.151635982846
 31
0.0
  0
ARC
  5
12B
  8
0
  6
CONTINUOUS
 62
     7
 10
3335.855582294204
 20
2637.251635982847
 30
0.0
 40
0.1999999999998181
 50
0.0
 51
90.0
  0
LINE
  5
12C
  8
0
  6
CONTINUOUS
 62
     7
 10
3335.855582294204
 20
2637.251635982847
 30
0.0
 11
3335.855582294204
 21
2637.451635982847
 31
0.0
  0
LINE
  5
12D
  8
0
  6
CONTINUOUS
 62
     7
 10
3335.855582294204
 20
2637.251635982847
 30
0.0
 11
3335.055582294204
 21
2637.251635982847
 31
0.0
  0
LINE
  5
12E
  8
0
  6
CONTINUOUS
 62
     7
 10
3321.055582294207
 20
2638.951635982846
 30
0.0
 11
1555.055582294207
 21
2638.951635982846
 31
0.0
  0
LINE
  5
12F
  8
0
  6
CONTINUOUS
 62
     7
 10
3321.055582294207
 20
2917.451635982846
 30
0.0
 11
1555.055582294207
 21
2917.451635982846
 31
0.0
  0
LINE
  5
130
  8
0
  6
CONTINUOUS
 62
     7
 10
3321.055582294207
 20
2637.951635982845
 30
0.0
 11
1555.055582294207
 21
2637.951635982845
 31
0.0
  0
LINE
  5
131
  8
0
  6
CONTINUOUS
 62
     7
 10
3321.055582294205
 20
2637.451635982838
 30
0.0
 11
3338.055582294205
 21
2637.451635982843
 31
0.0
  0
LINE
  5
132
  8
0
  6
CONTINUOUS
 62
     7
 10
3338.055582294207
 20
2917.451635982846
 30
0.0
 11
3321.055582294207
 21
2917.451635982846
 31
0.0
  0
LINE
  5
133
  8
0
  6
CONTINUOUS
 62
     7
 10
3338.055582294205
 20
2637.451635982843
 30
0.0
 11
3338.055582294207
 21
2917.451635982846
 31
0.0
  0
LINE
  5
134
  8
0
  6
CONTINUOUS
 62
     7
 10
3321.055582294207
 20
2917.451635982846
 30
0.0
 11
3321.055582294205
 21
2637.451635982838
 31
0.0
  0
LINE
  5
135
  8
0
  6
CONTINUOUS
 62
     7
 10
1538.055582294205
 20
2637.451635982839
 30
0.0
 11
1555.055582294205
 21
2637.451635982843
 31
0.0
  0
LINE
  5
136
  8
0
  6
CONTINUOUS
 62
     7
 10
1555.055582294207
 20
2917.451635982846
 30
0.0
 11
1538.055582294207
 21
2917.451635982846
 31
0.0
  0
LINE
  5
137
  8
0
  6
CONTINUOUS
 62
     7
 10
1555.055582294205
 20
2637.451635982843
 30
0.0
 11
1555.055582294207
 21
2917.451635982846
 31
0.0
  0
LINE
  5
138
  8
0
  6
CONTINUOUS
 62
     7
 10
1538.055582294207
 20
2917.451635982846
 30
0.0
 11
1538.055582294205
 21
2637.451635982839
 31
0.0
  0
LINE
  5
139
  8
0
  6
CONTINUOUS
 62
     8
 10
1540.755582294207
 20
2637.251635982848
 30
0.0
 11
1540.755582294207
 21
2637.151635982845
 31
0.0
  0
LINE
  5
13A
  8
0
  6
CONTINUOUS
 62
     8
 10
2440.255582294204
 20
2637.251635982848
 30
0.0
 11
2440.255582294204
 21
2637.151635982846
 31
0.0
  0
LINE
  5
13B
  8
0
  6
CONTINUOUS
 62
     8
 10
2436.355582294207
 20
2637.151635982846
 30
0.0
 11
2436.355582294207
 21
2637.251635982848
 31
0.0
  0
LINE
  5
13C
  8
0
  6
CONTINUOUS
 62
     8
 10
3335.855582294204
 20
2637.151635982846
 30
0.0
 11
3335.855582294204
 21
2637.251635982847
 31
0.0
  0
LINE
  5
13D
  8
0
  6
CONTINUOUS
 62
     7
 10
3979.6892120073
 20
1643.929077381611
 30
0.0
 11
3979.6892120073
 21
1644.429077381611
 31
0.0
  0
LINE
  5
13E
  8
0
  6
CONTINUOUS
 62
     7
 10
3979.6892120073
 20
1644.429077381611
 30
0.0
 11
3982.689212007299
 21
1644.429077381611
 31
0.0
  0
LINE
  5
13F
  8
0
  6
CONTINUOUS
 62
     7
 10
3982.689212007299
 20
1644.429077381611
 30
0.0
 11
3982.689212007299
 21
1643.929077381611
 31
0.0
  0
LINE
  5
140
  8
0
  6
CONTINUOUS
 62
     7
 10
3982.689212007299
 20
1643.929077381611
 30
0.0
 11
3979.6892120073
 21
1643.929077381611
 31
0.0
  0
LINE
  5
141
  8
0
  6
CONTINUOUS
 62
     7
 10
3983.6892120073
 20
1643.929077381611
 30
0.0
 11
3983.6892120073
 21
1644.429077381611
 31
0.0
  0
LINE
  5
142
  8
0
  6
CONTINUOUS
 62
     7
 10
3983.6892120073
 20
1644.429077381611
 30
0.0
 11
3982.689212007299
 21
1644.429077381611
 31
0.0
  0
LINE
  5
143
  8
0
  6
CONTINUOUS
 62
     7
 10
3983.6892120073
 20
1643.929077381611
 30
0.0
 11
3982.689212007299
 21
1643.929077381611
 31
0.0
  0
LINE
  5
144
  8
0
  6
CONTINUOUS
 62
     7
 10
3983.6892120073
 20
1644.429077381611
 30
0.0
 11
3983.6892120073
 21
1656.929077381611
 31
0.0
  0
LINE
  5
145
  8
0
  6
CONTINUOUS
 62
     7
 10
3982.6892120073
 20
1890.429077381613
 30
0.0
 11
3982.689212007299
 21
1644.429077381611
 31
0.0
  0
LINE
  5
146
  8
0
  6
CONTINUOUS
 62
     7
 10
3996.189212007299
 20
1677.429077381611
 30
0.0
 11
3997.689212007299
 21
1677.429077381611
 31
0.0
  0
LINE
  5
147
  8
0
  6
CONTINUOUS
 62
     7
 10
3983.6892120073
 20
1656.929077381611
 30
0.0
 11
3996.189212007299
 21
1656.929077381611
 31
0.0
  0
LINE
  5
148
  8
0
  6
CONTINUOUS
 62
     7
 10
3997.6892120073
 20
1890.429077381613
 30
0.0
 11
3997.689212007299
 21
1677.429077381611
 31
0.0
  0
LINE
  5
149
  8
0
  6
CONTINUOUS
 62
     7
 10
3996.189212007299
 20
1656.929077381611
 30
0.0
 11
3996.189212007299
 21
1677.429077381611
 31
0.0
  0
LINE
  5
14A
  8
0
  6
CONTINUOUS
 62
     7
 10
3982.6892120073
 20
1890.429077381613
 30
0.0
 11
3997.6892120073
 21
1890.429077381613
 31
0.0
  0
LINE
  5
14B
  8
0
  6
CONTINUOUS
 62
     7
 10
3979.6892120073
 20
1644.429077381611
 30
0.0
 11
3979.6892120073
 21
1890.429077381613
 31
0.0
  0
LINE
  5
14C
  8
0
  6
CONTINUOUS
 62
     7
 10
3979.6892120073
 20
1890.429077381613
 30
0.0
 11
3982.6892120073
 21
1890.429077381613
 31
0.0
  0
LINE
  5
14D
  8
0
  6
CONTINUOUS
 62
     7
 10
3982.6892120073
 20
1890.929077381613
 30
0.0
 11
3982.6892120073
 21
1890.429077381613
 31
0.0
  0
LINE
  5
14E
  8
0
  6
CONTINUOUS
 62
     7
 10
3982.6892120073
 20
1890.929077381613
 30
0.0
 11
3997.6892120073
 21
1890.929077381613
 31
0.0
  0
LINE
  5
14F
  8
0
  6
CONTINUOUS
 62
     7
 10
3997.6892120073
 20
1890.929077381613
 30
0.0
 11
3997.6892120073
 21
1890.429077381613
 31
0.0
  0
LINE
  5
150
  8
0
  6
CONTINUOUS
 62
     7
 10
3979.6892120073
 20
1890.429077381613
 30
0.0
 11
3979.6892120073
 21
1890.929077381613
 31
0.0
  0
LINE
  5
151
  8
0
  6
CONTINUOUS
 62
     7
 10
3979.6892120073
 20
1890.929077381613
 30
0.0
 11
3982.6892120073
 21
1890.929077381613
 31
0.0
  0
LINE
  5
152
  8
0
  6
CONTINUOUS
 62
     7
 10
3996.1892120073
 20
1676.929077381611
 30
0.0
 11
3996.389212007301
 21
1676.729077381611
 31
0.0
  0
LINE
  5
153
  8
0
  6
CONTINUOUS
 62
     7
 10
3996.389212007301
 20
1676.729077381611
 30
0.0
 11
3996.389212007301
 21
1656.729077381611
 31
0.0
  0
LINE
  5
154
  8
0
  6
CONTINUOUS
 62
     7
 10
3996.1892120073
 20
1656.929077381611
 30
0.0
 11
3996.389212007301
 21
1656.729077381611
 31
0.0
  0
ARC
  5
155
  8
0
  6
CONTINUOUS
 62
     7
 10
3996.9892120073
 20
1655.929077381611
 30
0.0
 40
0.7999999999999545
 50
270.0000000000008
 51
0.0
  0
LINE
  5
156
  8
0
  6
CONTINUOUS
 62
     7
 10
3997.9892120073
 20
1655.929077381611
 30
0.0
 11
3997.7892120073
 21
1655.929077381611
 31
0.0
  0
ARC
  5
157
  8
0
  6
CONTINUOUS
 62
     7
 10
3996.9892120073
 20
1655.929077381611
 30
0.0
 40
1.0
 50
270.0000000000008
 51
0.0
  0
LINE
  5
158
  8
0
  6
CONTINUOUS
 62
     7
 10
3996.9892120073
 20
1655.129077381611
 30
0.0
 11
3996.9892120073
 21
1654.929077381611
 31
0.0
  0
ARC
  5
159
  8
0
  6
CONTINUOUS
 62
     7
 10
3986.606025777281
 20
1653.929077381611
 30
0.0
 40
1.200000000000414
 50
90.0
 51
175.0300534053126
  0
LINE
  5
15A
  8
0
  6
CONTINUOUS
 62
     7
 10
3984.569348826337
 20
1644.359770824886
 30
0.0
 11
3985.410537444971
 21
1654.033037216698
 31
0.0
  0
ARC
  5
15B
  8
0
  6
CONTINUOUS
 62
     7
 10
3983.772356604797
 20
1644.429077381611
 30
0.0
 40
0.7999999999999814
 50
260.4234115189204
 51
355.0300534053223
  0
ARC
  5
15C
  8
0
  6
CONTINUOUS
 62
     7
 10
3983.689173681372
 20
1643.936045332703
 30
0.0
 40
0.3000000000000483
 50
223.6216529673018
 51
260.4234115189882
  0
LINE
  5
15D
  8
0
  6
CONTINUOUS
 62
     7
 10
3983.8892120073
 20
1643.729077381611
 30
0.0
 11
3983.472000323842
 21
1643.729077381611
 31
0.0
  0
LINE
  5
15E
  8
0
  6
CONTINUOUS
 62
     7
 10
3983.8892120073
 20
1656.729077381611
 30
0.0
 11
3983.8892120073
 21
1643.729077381611
 31
0.0
  0
LINE
  5
15F
  8
0
  6
CONTINUOUS
 62
     7
 10
3996.389212007301
 20
1656.729077381611
 30
0.0
 11
3983.8892120073
 21
1656.729077381611
 31
0.0
  0
LINE
  5
160
  8
0
  6
CONTINUOUS
 62
     7
 10
3997.7892120073
 20
1676.729077381611
 30
0.0
 11
3996.389212007301
 21
1676.729077381611
 31
0.0
  0
LINE
  5
161
  8
0
  6
CONTINUOUS
 62
     7
 10
3997.7892120073
 20
1655.929077381611
 30
0.0
 11
3997.7892120073
 21
1676.729077381611
 31
0.0
  0
LINE
  5
162
  8
0
  6
CONTINUOUS
 62
     7
 10
3986.606025777281
 20
1655.129077381611
 30
0.0
 11
3996.9892120073
 21
1655.129077381611
 31
0.0
  0
LINE
  5
163
  8
0
  6
CONTINUOUS
 62
     7
 10
3997.9892120073
 20
1676.729077381611
 30
0.0
 11
3997.7892120073
 21
1676.729077381611
 31
0.0
  0
LINE
  5
164
  8
0
  6
CONTINUOUS
 62
     7
 10
3997.7892120073
 20
1676.929077381611
 30
0.0
 11
3997.7892120073
 21
1676.729077381611
 31
0.0
  0
ARC
  5
165
  8
0
  6
CONTINUOUS
 62
     7
 10
3997.7892120073
 20
1676.729077381611
 30
0.0
 40
0.2000000000000455
 50
0.0
 51
90.0
  0
LINE
  5
166
  8
0
  6
CONTINUOUS
 62
     7
 10
3996.1892120073
 20
1676.929077381611
 30
0.0
 11
3997.7892120073
 21
1676.929077381611
 31
0.0
  0
LINE
  5
167
  8
0
  6
CONTINUOUS
 62
     7
 10
3983.6892120073
 20
1656.929077381611
 30
0.0
 11
3983.8892120073
 21
1656.729077381611
 31
0.0
  0
LINE
  5
168
  8
0
  6
CONTINUOUS
 62
     7
 10
3996.9892120073
 20
1654.929077381611
 30
0.0
 11
3986.606025777281
 21
1654.929077381611
 31
0.0
  0
LINE
  5
169
  8
0
  6
CONTINUOUS
 62
     7
 10
3986.606025777281
 20
1655.129077381611
 30
0.0
 11
3986.606025777281
 21
1654.929077381611
 31
0.0
  0
LINE
  5
16A
  8
0
  6
CONTINUOUS
 62
     7
 10
3984.569348826337
 20
1644.359770824886
 30
0.0
 11
3984.768596881722
 21
1644.342444185705
 31
0.0
  0
ARC
  5
16B
  8
0
  6
CONTINUOUS
 62
     7
 10
3983.772356604797
 20
1644.429077381611
 30
0.0
 40
0.9999999999999509
 50
260.4234115189333
 51
355.0300534053223
  0
LINE
  5
16C
  8
0
  6
CONTINUOUS
 62
     7
 10
3983.639263927317
 20
1643.640226103358
 30
0.0
 11
3983.605990757947
 21
1643.443013283794
 31
0.0
  0
LINE
  5
16D
  8
0
  6
CONTINUOUS
 62
     7
 10
3985.410537444971
 20
1654.033037216698
 30
0.0
 11
3985.609785500356
 21
1654.015710577517
 31
0.0
  0
LINE
  5
16E
  8
0
  6
CONTINUOUS
 62
     7
 10
3985.609785500356
 20
1654.015710577517
 30
0.0
 11
3984.768596881722
 21
1644.342444185705
 31
0.0
  0
ARC
  5
16F
  8
0
  6
CONTINUOUS
 62
     7
 10
3983.689173681372
 20
1643.936045332703
 30
0.0
 40
0.5000000000000059
 50
180.7984942261247
 51
260.4234115189868
  0
POLYLINE
  5
170
  8
0
  6
CONTINUOUS
 62
     7
 66
     1
 10
0.0
 20
0.0
 30
0.0
  0
VERTEX
  5
334
  8
0
  6
CONTINUOUS
 62
     7
 10
3983.472000323842
 20
1643.729077381611
 30
0.0
  0
VERTEX
  5
335
  8
0
  6
CONTINUOUS
 62
     7
 10
3983.465648863929
 20
1643.731835313788
 30
0.0
  0
VERTEX
  5
336
  8
0
  6
CONTINUOUS
 62
     7
 10
3983.459320802602
 20
1643.734661753536
 30
0.0
  0
VERTEX
  5
337
  8
0
  6
CONTINUOUS
 62
     7
 10
3983.453018124033
 20
1643.737557540699
 30
0.0
  0
VERTEX
  5
338
  8
0
  6
CONTINUOUS
 62
     7
 10
3983.446741920899
 20
1643.740520698083
 30
0.0
  0
VERTEX
  5
339
  8
0
  6
CONTINUOUS
 62
     7
 10
3983.440493285874
 20
1643.743549248491
 30
0.0
  0
VERTEX
  5
33A
  8
0
  6
CONTINUOUS
 62
     7
 10
3983.434273311636
 20
1643.746641214731
 30
0.0
  0
VERTEX
  5
33B
  8
0
  6
CONTINUOUS
 62
     7
 10
3983.42808309086
 20
1643.749794619605
 30
0.0
  0
VERTEX
  5
33C
  8
0
  6
CONTINUOUS
 62
     7
 10
3983.421923716224
 20
1643.753007485921
 30
0.0
  0
VERTEX
  5
33D
  8
0
  6
CONTINUOUS
 62
     7
 10
3983.415796280405
 20
1643.756277836482
 30
0.0
  0
VERTEX
  5
33E
  8
0
  6
CONTINUOUS
 62
     7
 10
3983.409701876077
 20
1643.759603694093
 30
0.0
  0
VERTEX
  5
33F
  8
0
  6
CONTINUOUS
 62
     7
 10
3983.403641595919
 20
1643.76298308156
 30
0.0
  0
VERTEX
  5
340
  8
0
  6
CONTINUOUS
 62
     7
 10
3983.397616532606
 20
1643.766414021688
 30
0.0
  0
VERTEX
  5
341
  8
0
  6
CONTINUOUS
 62
     7
 10
3983.391627778815
 20
1643.769894537281
 30
0.0
  0
VERTEX
  5
342
  8
0
  6
CONTINUOUS
 62
     7
 10
3983.385676427221
 20
1643.773422651145
 30
0.0
  0
VERTEX
  5
343
  8
0
  6
CONTINUOUS
 62
     7
 10
3983.379763570503
 20
1643.776996386086
 30
0.0
  0
VERTEX
  5
344
  8
0
  6
CONTINUOUS
 62
     7
 10
3983.373890301336
 20
1643.780613764908
 30
0.0
  0
VERTEX
  5
345
  8
0
  6
CONTINUOUS
 62
     7
 10
3983.368057712396
 20
1643.784272810415
 30
0.0
  0
VERTEX
  5
346
  8
0
  6
CONTINUOUS
 62
     7
 10
3983.36226689636
 20
1643.787971545413
 30
0.0
  0
VERTEX
  5
347
  8
0
  6
CONTINUOUS
 62
     7
 10
3983.356518945905
 20
1643.791707992709
 30
0.0
  0
VERTEX
  5
348
  8
0
  6
CONTINUOUS
 62
     7
 10
3983.350814953707
 20
1643.795480175105
 30
0.0
  0
VERTEX
  5
349
  8
0
  6
CONTINUOUS
 62
     7
 10
3983.345156012443
 20
1643.799286115407
 30
0.0
  0
VERTEX
  5
34A
  8
0
  6
CONTINUOUS
 62
     7
 10
3983.339543214788
 20
1643.803123836421
 30
0.0
  0
VERTEX
  5
34B
  8
0
  6
CONTINUOUS
 62
     7
 10
3983.333977653419
 20
1643.806991360951
 30
0.0
  0
VERTEX
  5
34C
  8
0
  6
CONTINUOUS
 62
     7
 10
3983.328460421014
 20
1643.810886711803
 30
0.0
  0
VERTEX
  5
34D
  8
0
  6
CONTINUOUS
 62
     7
 10
3983.322992669995
 20
1643.814807833958
 30
0.0
  0
VERTEX
  5
34E
  8
0
  6
CONTINUOUS
 62
     7
 10
3983.317576611796
 20
1643.818751292997
 30
0.0
  0
VERTEX
  5
34F
  8
0
  6
CONTINUOUS
 62
     7
 10
3983.312215366685
 20
1643.822712470704
 30
0.0
  0
VERTEX
  5
350
  8
0
  6
CONTINUOUS
 62
     7
 10
3983.306912084427
 20
1643.82668671045
 30
0.0
  0
VERTEX
  5
351
  8
0
  6
CONTINUOUS
 62
     7
 10
3983.301669914782
 20
1643.830669355603
 30
0.0
  0
VERTEX
  5
352
  8
0
  6
CONTINUOUS
 62
     7
 10
3983.296492007512
 20
1643.834655749534
 30
0.0
  0
VERTEX
  5
353
  8
0
  6
CONTINUOUS
 62
     7
 10
3983.291381512379
 20
1643.838641235612
 30
0.0
  0
VERTEX
  5
354
  8
0
  6
CONTINUOUS
 62
     7
 10
3983.286341579148
 20
1643.842621157208
 30
0.0
  0
VERTEX
  5
355
  8
0
  6
CONTINUOUS
 62
     7
 10
3983.281375357577
 20
1643.84659085769
 30
0.0
  0
VERTEX
  5
356
  8
0
  6
CONTINUOUS
 62
     7
 10
3983.27648599743
 20
1643.850545680429
 30
0.0
  0
VERTEX
  5
357
  8
0
  6
CONTINUOUS
 62
     7
 10
3983.271676648469
 20
1643.854480968795
 30
0.0
  0
VERTEX
  5
358
  8
0
  6
CONTINUOUS
 62
     7
 10
3983.266950460456
 20
1643.858392066158
 30
0.0
  0
VERTEX
  5
359
  8
0
  6
CONTINUOUS
 62
     7
 10
3983.262310583151
 20
1643.862274315886
 30
0.0
  0
VERTEX
  5
35A
  8
0
  6
CONTINUOUS
 62
     7
 10
3983.257760166319
 20
1643.86612306135
 30
0.0
  0
VERTEX
  5
35B
  8
0
  6
CONTINUOUS
 62
     7
 10
3983.253302360599
 20
1643.869933644607
 30
0.0
  0
VERTEX
  5
35C
  8
0
  6
CONTINUOUS
 62
     7
 10
3983.248940695973
 20
1643.873700840427
 30
0.0
  0
VERTEX
  5
35D
  8
0
  6
CONTINUOUS
 62
     7
 10
3983.244679672397
 20
1643.877417973038
 30
0.0
  0
VERTEX
  5
35E
  8
0
  6
CONTINUOUS
 62
     7
 10
3983.24052394265
 20
1643.881078138129
 30
0.0
  0
VERTEX
  5
35F
  8
0
  6
CONTINUOUS
 62
     7
 10
3983.236478159507
 20
1643.88467443139
 30
0.0
  0
VERTEX
  5
360
  8
0
  6
CONTINUOUS
 62
     7
 10
3983.232546975748
 20
1643.888199948513
 30
0.0
  0
VERTEX
  5
361
  8
0
  6
CONTINUOUS
 62
     7
 10
3983.228735044148
 20
1643.891647785186
 30
0.0
  0
VERTEX
  5
362
  8
0
  6
CONTINUOUS
 62
     7
 10
3983.225047017488
 20
1643.895011037103
 30
0.0
  0
VERTEX
  5
363
  8
0
  6
CONTINUOUS
 62
     7
 10
3983.221487548542
 20
1643.898282799951
 30
0.0
  0
VERTEX
  5
364
  8
0
  6
CONTINUOUS
 62
     7
 10
3983.21806129009
 20
1643.901456169422
 30
0.0
  0
VERTEX
  5
365
  8
0
  6
CONTINUOUS
 62
     7
 10
3983.214772894918
 20
1643.904524241196
 30
0.0
  0
VERTEX
  5
366
  8
0
  6
CONTINUOUS
 62
     7
 10
3983.211629525197
 20
1643.907477559355
 30
0.0
  0
VERTEX
  5
367
  8
0
  6
CONTINUOUS
 62
     7
 10
3983.208647913856
 20
1643.910296936213
 30
0.0
  0
VERTEX
  5
368
  8
0
  6
CONTINUOUS
 62
     7
 10
3983.205847075197
 20
1643.912960864332
 30
0.0
  0
VERTEX
  5
369
  8
0
  6
CONTINUOUS
 62
     7
 10
3983.203246023523
 20
1643.915447836273
 30
0.0
  0
VERTEX
  5
36A
  8
0
  6
CONTINUOUS
 62
     7
 10
3983.200863773135
 20
1643.917736344596
 30
0.0
  0
VERTEX
  5
36B
  8
0
  6
CONTINUOUS
 62
     7
 10
3983.198719338337
 20
1643.919804881863
 30
0.0
  0
VERTEX
  5
36C
  8
0
  6
CONTINUOUS
 62
     7
 10
3983.196831733429
 20
1643.921631940636
 30
0.0
  0
VERTEX
  5
36D
  8
0
  6
CONTINUOUS
 62
     7
 10
3983.195218619976
 20
1643.923197388618
 30
0.0
  0
VERTEX
  5
36E
  8
0
  6
CONTINUOUS
 62
     7
 10
3983.193869606155
 20
1643.924509611445
 30
0.0
  0
VERTEX
  5
36F
  8
0
  6
CONTINUOUS
 62
     7
 10
3983.192747848128
 20
1643.925603884813
 30
0.0
  0
VERTEX
  5
370
  8
0
  6
CONTINUOUS
 62
     7
 10
3983.191815469925
 20
1643.926516533632
 30
0.0
  0
VERTEX
  5
371
  8
0
  6
CONTINUOUS
 62
     7
 10
3983.191034595583
 20
1643.927283882811
 30
0.0
  0
VERTEX
  5
372
  8
0
  6
CONTINUOUS
 62
     7
 10
3983.190367349137
 20
1643.927942257261
 30
0.0
  0
VERTEX
  5
373
  8
0
  6
CONTINUOUS
 62
     7
 10
3983.189775854622
 20
1643.928527981891
 30
0.0
  0
VERTEX
  5
374
  8
0
  6
CONTINUOUS
 62
     7
 10
3983.189222236072
 20
1643.929077381611
 30
0.0
  0
SEQEND
  5
3BA
  8
0
  6
CONTINUOUS
 62
     7
  0
LINE
  5
171
  8
0
  6
CONTINUOUS
 62
     7
 10
3983.6892120073
 20
1643.929077381611
 30
0.0
 11
3983.8892120073
 21
1643.729077381611
 31
0.0
  0
ARC
  5
172
  8
0
  6
CONTINUOUS
 62
     7
 10
3986.606025777281
 20
1653.929077381611
 30
0.0
 40
1.000000000000424
 50
90.0
 51
175.0300534053108
  0
LINE
  5
173
  8
0
  6
CONTINUOUS
 62
     7
 10
3998.989212007297
 20
1642.929077381612
 30
0.0
 11
4277.989212007298
 21
1642.929077381612
 31
0.0
  0
LINE
  5
174
  8
0
  6
CONTINUOUS
 62
     7
 10
3998.989212007296
 20
1891.929077381613
 30
0.0
 11
3998.989212007297
 21
1642.929077381612
 31
0.0
  0
LINE
  5
175
  8
0
  6
CONTINUOUS
 62
     7
 10
4277.989212007298
 20
1891.929077381613
 30
0.0
 11
4277.989212007298
 21
1642.929077381612
 31
0.0
  0
LINE
  5
176
  8
0
  6
CONTINUOUS
 62
     7
 10
3998.989212007296
 20
1891.929077381613
 30
0.0
 11
4277.989212007298
 21
1891.929077381613
 31
0.0
  0
LINE
  5
177
  8
0
  6
CONTINUOUS
 62
     7
 10
3997.989212007297
 20
1891.929077381613
 30
0.0
 11
3998.989212007296
 21
1891.929077381613
 31
0.0
  0
LINE
  5
178
  8
0
  6
CONTINUOUS
 62
     7
 10
3997.989212007297
 20
1642.929077381612
 30
0.0
 11
3997.989212007297
 21
1891.929077381613
 31
0.0
  0
LINE
  5
179
  8
0
  6
CONTINUOUS
 62
     7
 10
3997.989212007297
 20
1642.929077381612
 30
0.0
 11
3998.989212007297
 21
1642.929077381612
 31
0.0
  0
LINE
  5
17A
  8
0
  6
CONTINUOUS
 62
     7
 10
4277.989212007298
 20
1892.429077381612
 30
0.0
 11
4277.989212007298
 21
1891.929077381613
 31
0.0
  0
LINE
  5
17B
  8
0
  6
CONTINUOUS
 62
     7
 10
3997.989212007297
 20
1892.429077381611
 30
0.0
 11
3997.989212007297
 21
1891.929077381613
 31
0.0
  0
LINE
  5
17C
  8
0
  6
CONTINUOUS
 62
     7
 10
3997.989212007297
 20
1892.429077381611
 30
0.0
 11
4277.989212007298
 21
1892.429077381612
 31
0.0
  0
LINE
  5
17D
  8
0
  6
CONTINUOUS
 62
     7
 10
3997.989212007297
 20
1891.929077381613
 30
0.0
 11
4277.989212007298
 21
1891.929077381613
 31
0.0
  0
LINE
  5
17E
  8
0
  6
CONTINUOUS
 62
     7
 10
3997.989212007297
 20
1642.429077381612
 30
0.0
 11
3997.989212007297
 21
1642.929077381612
 31
0.0
  0
LINE
  5
17F
  8
0
  6
CONTINUOUS
 62
     7
 10
4277.989212007299
 20
1642.429077381612
 30
0.0
 11
4277.989212007299
 21
1642.929077381612
 31
0.0
  0
LINE
  5
180
  8
0
  6
CONTINUOUS
 62
     7
 10
4277.989212007299
 20
1642.929077381612
 30
0.0
 11
3997.989212007297
 21
1642.929077381612
 31
0.0
  0
LINE
  5
181
  8
0
  6
CONTINUOUS
 62
     7
 10
3997.989212007297
 20
1642.429077381612
 30
0.0
 11
4277.989212007299
 21
1642.429077381612
 31
0.0
  0
LINE
  5
182
  8
0
  6
CONTINUOUS
 62
     7
 10
859.9240532635293
 20
1643.929077381611
 30
0.0
 11
859.9240532635293
 21
1644.429077381611
 31
0.0
  0
LINE
  5
183
  8
0
  6
CONTINUOUS
 62
     7
 10
862.9240532635293
 20
1644.429077381611
 30
0.0
 11
862.9240532635293
 21
1643.929077381611
 31
0.0
  0
LINE
  5
184
  8
0
  6
CONTINUOUS
 62
     7
 10
859.9240532635293
 20
1644.429077381611
 30
0.0
 11
862.9240532635293
 21
1644.429077381611
 31
0.0
  0
LINE
  5
185
  8
0
  6
CONTINUOUS
 62
     7
 10
862.9240532635293
 20
1643.929077381611
 30
0.0
 11
859.9240532635293
 21
1643.929077381611
 31
0.0
  0
LINE
  5
186
  8
0
  6
CONTINUOUS
 62
     7
 10
858.9240532635295
 20
1643.929077381611
 30
0.0
 11
858.9240532635293
 21
1644.429077381611
 31
0.0
  0
LINE
  5
187
  8
0
  6
CONTINUOUS
 62
     7
 10
859.9240532635293
 20
1644.429077381611
 30
0.0
 11
858.9240532635293
 21
1644.429077381611
 31
0.0
  0
LINE
  5
188
  8
0
  6
CONTINUOUS
 62
     7
 10
858.9240532635295
 20
1643.929077381611
 30
0.0
 11
859.9240532635293
 21
1643.929077381611
 31
0.0
  0
LINE
  5
189
  8
0
  6
CONTINUOUS
 62
     7
 10
859.9240532635293
 20
1644.429077381611
 30
0.0
 11
859.9240532635306
 21
1890.429077381614
 31
0.0
  0
LINE
  5
18A
  8
0
  6
CONTINUOUS
 62
     7
 10
862.9240532635306
 20
1890.429077381614
 30
0.0
 11
862.9240532635293
 21
1644.429077381611
 31
0.0
  0
LINE
  5
18B
  8
0
  6
CONTINUOUS
 62
     7
 10
859.9240532635306
 20
1890.429077381614
 30
0.0
 11
862.9240532635306
 21
1890.429077381614
 31
0.0
  0
LINE
  5
18C
  8
0
  6
CONTINUOUS
 62
     7
 10
844.9240532635306
 20
1890.429077381614
 30
0.0
 11
844.9240532635293
 21
1677.429077381612
 31
0.0
  0
LINE
  5
18D
  8
0
  6
CONTINUOUS
 62
     7
 10
858.9240532635293
 20
1644.429077381611
 30
0.0
 11
858.9240532635293
 21
1656.929077381612
 31
0.0
  0
LINE
  5
18E
  8
0
  6
CONTINUOUS
 62
     7
 10
858.9240532635293
 20
1656.929077381612
 30
0.0
 11
846.4240532635295
 21
1656.929077381612
 31
0.0
  0
LINE
  5
18F
  8
0
  6
CONTINUOUS
 62
     7
 10
846.4240532635295
 20
1656.929077381612
 30
0.0
 11
846.4240532635295
 21
1677.429077381612
 31
0.0
  0
LINE
  5
190
  8
0
  6
CONTINUOUS
 62
     7
 10
846.4240532635295
 20
1677.429077381612
 30
0.0
 11
844.9240532635293
 21
1677.429077381612
 31
0.0
  0
LINE
  5
191
  8
0
  6
CONTINUOUS
 62
     7
 10
844.9240532635306
 20
1890.429077381614
 30
0.0
 11
859.9240532635306
 21
1890.429077381614
 31
0.0
  0
LINE
  5
192
  8
0
  6
CONTINUOUS
 62
     7
 10
859.9240532635306
 20
1890.429077381614
 30
0.0
 11
859.9240532635306
 21
1890.929077381614
 31
0.0
  0
LINE
  5
193
  8
0
  6
CONTINUOUS
 62
     7
 10
862.9240532635306
 20
1890.929077381614
 30
0.0
 11
862.9240532635306
 21
1890.429077381614
 31
0.0
  0
LINE
  5
194
  8
0
  6
CONTINUOUS
 62
     7
 10
859.9240532635306
 20
1890.929077381614
 30
0.0
 11
862.9240532635306
 21
1890.929077381614
 31
0.0
  0
LINE
  5
195
  8
0
  6
CONTINUOUS
 62
     7
 10
844.9240532635306
 20
1890.929077381614
 30
0.0
 11
844.9240532635306
 21
1890.429077381614
 31
0.0
  0
LINE
  5
196
  8
0
  6
CONTINUOUS
 62
     7
 10
859.9240532635306
 20
1890.929077381614
 30
0.0
 11
844.9240532635306
 21
1890.929077381614
 31
0.0
  0
LINE
  5
197
  8
0
  6
CONTINUOUS
 62
     7
 10
844.8240532635291
 20
1676.92907738161
 30
0.0
 11
844.8240532635291
 21
1676.72907738161
 31
0.0
  0
LINE
  5
198
  8
0
  6
CONTINUOUS
 62
     7
 10
844.624053263529
 20
1676.72907738161
 30
0.0
 11
844.8240532635291
 21
1676.72907738161
 31
0.0
  0
ARC
  5
199
  8
0
  6
CONTINUOUS
 62
     7
 10
844.8240532635291
 20
1676.72907738161
 30
0.0
 40
0.2000000000000455
 50
90.0
 51
180.0
  0
ARC
  5
19A
  8
0
  6
CONTINUOUS
 62
     7
 10
845.6240532635298
 20
1655.92907738161
 30
0.0
 40
1.0
 50
180.0
 51
270.0000000000008
  0
LINE
  5
19B
  8
0
  6
CONTINUOUS
 62
     7
 10
844.6240532635298
 20
1655.92907738161
 30
0.0
 11
844.8240532635298
 21
1655.92907738161
 31
0.0
  0
ARC
  5
19C
  8
0
  6
CONTINUOUS
 62
     7
 10
845.6240532635298
 20
1655.92907738161
 30
0.0
 40
0.8000000000000682
 50
180.0
 51
270.0000000000008
  0
LINE
  5
19D
  8
0
  6
CONTINUOUS
 62
     7
 10
845.6240532635298
 20
1654.92907738161
 30
0.0
 11
845.6240532635298
 21
1655.12907738161
 31
0.0
  0
LINE
  5
19E
  8
0
  6
CONTINUOUS
 62
     7
 10
844.8240532635291
 20
1676.72907738161
 30
0.0
 11
844.8240532635298
 21
1655.92907738161
 31
0.0
  0
LINE
  5
19F
  8
0
  6
CONTINUOUS
 62
     7
 10
858.7240532635303
 20
1643.72907738161
 30
0.0
 11
858.7240532635303
 21
1656.72907738161
 31
0.0
  0
LINE
  5
1A0
  8
0
  6
CONTINUOUS
 62
     7
 10
859.1412649469884
 20
1643.72907738161
 30
0.0
 11
858.7240532635303
 21
1643.72907738161
 31
0.0
  0
ARC
  5
1A1
  8
0
  6
CONTINUOUS
 62
     7
 10
858.9240915894585
 20
1643.936045332702
 30
0.0
 40
0.3000000000000862
 50
279.5765884810562
 51
316.3783470327297
  0
ARC
  5
1A2
  8
0
  6
CONTINUOUS
 62
     7
 10
858.8409086660338
 20
1644.42907738161
 30
0.0
 40
0.7999999999999804
 50
184.9699465946955
 51
279.5765884810572
  0
LINE
  5
1A3
  8
0
  6
CONTINUOUS
 62
     7
 10
857.2027278258595
 20
1654.033037216697
 30
0.0
 11
858.043916444494
 21
1644.359770824885
 31
0.0
  0
ARC
  5
1A4
  8
0
  6
CONTINUOUS
 62
     7
 10
856.0072394935497
 20
1653.92907738161
 30
0.0
 40
1.200000000000273
 50
4.969946594688837
 51
90.0
  0
LINE
  5
1A5
  8
0
  6
CONTINUOUS
 62
     7
 10
845.6240532635298
 20
1655.12907738161
 30
0.0
 11
856.0072394935497
 21
1655.12907738161
 31
0.0
  0
LINE
  5
1A6
  8
0
  6
CONTINUOUS
 62
     7
 10
846.2240532635291
 20
1676.72907738161
 30
0.0
 11
844.8240532635291
 21
1676.72907738161
 31
0.0
  0
LINE
  5
1A7
  8
0
  6
CONTINUOUS
 62
     7
 10
846.2240532635299
 20
1656.72907738161
 30
0.0
 11
846.2240532635291
 21
1676.72907738161
 31
0.0
  0
LINE
  5
1A8
  8
0
  6
CONTINUOUS
 62
     7
 10
858.7240532635303
 20
1656.72907738161
 30
0.0
 11
846.2240532635299
 21
1656.72907738161
 31
0.0
  0
LINE
  5
1A9
  8
0
  6
CONTINUOUS
 62
     7
 10
844.8240532635291
 20
1676.92907738161
 30
0.0
 11
846.4240532635291
 21
1676.92907738161
 31
0.0
  0
LINE
  5
1AA
  8
0
  6
CONTINUOUS
 62
     7
 10
846.4240532635291
 20
1676.92907738161
 30
0.0
 11
846.2240532635291
 21
1676.72907738161
 31
0.0
  0
LINE
  5
1AB
  8
0
  6
CONTINUOUS
 62
     7
 10
856.0072394935497
 20
1654.92907738161
 30
0.0
 11
845.6240532635298
 21
1654.92907738161
 31
0.0
  0
LINE
  5
1AC
  8
0
  6
CONTINUOUS
 62
     7
 10
856.0072394935497
 20
1654.92907738161
 30
0.0
 11
856.0072394935497
 21
1655.12907738161
 31
0.0
  0
LINE
  5
1AD
  8
0
  6
CONTINUOUS
 62
     7
 10
846.2240532635299
 20
1656.72907738161
 30
0.0
 11
846.4240532635299
 21
1656.92907738161
 31
0.0
  0
LINE
  5
1AE
  8
0
  6
CONTINUOUS
 62
     7
 10
858.7240532635303
 20
1656.72907738161
 30
0.0
 11
858.9240532635303
 21
1656.92907738161
 31
0.0
  0
ARC
  5
1AF
  8
0
  6
CONTINUOUS
 62
     7
 10
856.0072394935497
 20
1653.92907738161
 30
0.0
 40
1.000000000000227
 50
4.969946594690906
 51
90.0
  0
LINE
  5
1B0
  8
0
  6
CONTINUOUS
 62
     7
 10
857.0034797704745
 20
1654.015710577516
 30
0.0
 11
857.2027278258595
 21
1654.033037216697
 31
0.0
  0
LINE
  5
1B1
  8
0
  6
CONTINUOUS
 62
     7
 10
857.844668389109
 20
1644.342444185704
 30
0.0
 11
857.0034797704745
 21
1654.015710577516
 31
0.0
  0
LINE
  5
1B2
  8
0
  6
CONTINUOUS
 62
     7
 10
858.043916444494
 20
1644.359770824885
 30
0.0
 11
857.844668389109
 21
1644.342444185704
 31
0.0
  0
LINE
  5
1B3
  8
0
  6
CONTINUOUS
 62
     7
 10
858.9740013435134
 20
1643.640226103357
 30
0.0
 11
859.0072745128833
 21
1643.443013283794
 31
0.0
  0
ARC
  5
1B4
  8
0
  6
CONTINUOUS
 62
     7
 10
858.8409086660338
 20
1644.42907738161
 30
0.0
 40
1.000000000000084
 50
184.9699465946917
 51
279.5765884810619
  0
LINE
  5
1B5
  8
0
  6
CONTINUOUS
 62
     7
 10
858.7240532635303
 20
1643.72907738161
 30
0.0
 11
858.9240532635303
 21
1643.92907738161
 31
0.0
  0
POLYLINE
  5
1B6
  8
0
  6
CONTINUOUS
 62
     7
 66
     1
 10
0.0
 20
0.0
 30
0.0
  0
VERTEX
  5
375
  8
0
  6
CONTINUOUS
 62
     7
 10
859.1412649469884
 20
1643.72907738161
 30
0.0
  0
VERTEX
  5
376
  8
0
  6
CONTINUOUS
 62
     7
 10
859.1476164069022
 20
1643.731835313788
 30
0.0
  0
VERTEX
  5
377
  8
0
  6
CONTINUOUS
 62
     7
 10
859.1539444682279
 20
1643.734661753535
 30
0.0
  0
VERTEX
  5
378
  8
0
  6
CONTINUOUS
 62
     7
 10
859.1602471467967
 20
1643.737557540699
 30
0.0
  0
VERTEX
  5
379
  8
0
  6
CONTINUOUS
 62
     7
 10
859.1665233499315
 20
1643.740520698082
 30
0.0
  0
VERTEX
  5
37A
  8
0
  6
CONTINUOUS
 62
     7
 10
859.1727719849566
 20
1643.743549248491
 30
0.0
  0
VERTEX
  5
37B
  8
0
  6
CONTINUOUS
 62
     7
 10
859.1789919591944
 20
1643.74664121473
 30
0.0
  0
VERTEX
  5
37C
  8
0
  6
CONTINUOUS
 62
     7
 10
859.1851821799698
 20
1643.749794619604
 30
0.0
  0
VERTEX
  5
37D
  8
0
  6
CONTINUOUS
 62
     7
 10
859.1913415546055
 20
1643.75300748592
 30
0.0
  0
VERTEX
  5
37E
  8
0
  6
CONTINUOUS
 62
     7
 10
859.1974689904255
 20
1643.756277836481
 30
0.0
  0
VERTEX
  5
37F
  8
0
  6
CONTINUOUS
 62
     7
 10
859.2035633947528
 20
1643.759603694092
 30
0.0
  0
VERTEX
  5
380
  8
0
  6
CONTINUOUS
 62
     7
 10
859.2096236749112
 20
1643.762983081559
 30
0.0
  0
VERTEX
  5
381
  8
0
  6
CONTINUOUS
 62
     7
 10
859.2156487382243
 20
1643.766414021686
 30
0.0
  0
VERTEX
  5
382
  8
0
  6
CONTINUOUS
 62
     7
 10
859.2216374920159
 20
1643.76989453728
 30
0.0
  0
VERTEX
  5
383
  8
0
  6
CONTINUOUS
 62
     7
 10
859.2275888436089
 20
1643.773422651145
 30
0.0
  0
VERTEX
  5
384
  8
0
  6
CONTINUOUS
 62
     7
 10
859.2335017003273
 20
1643.776996386085
 30
0.0
  0
VERTEX
  5
385
  8
0
  6
CONTINUOUS
 62
     7
 10
859.2393749694949
 20
1643.780613764907
 30
0.0
  0
VERTEX
  5
386
  8
0
  6
CONTINUOUS
 62
     7
 10
859.2452075584345
 20
1643.784272810414
 30
0.0
  0
VERTEX
  5
387
  8
0
  6
CONTINUOUS
 62
     7
 10
859.2509983744703
 20
1643.787971545413
 30
0.0
  0
VERTEX
  5
388
  8
0
  6
CONTINUOUS
 62
     7
 10
859.2567463249253
 20
1643.791707992708
 30
0.0
  0
VERTEX
  5
389
  8
0
  6
CONTINUOUS
 62
     7
 10
859.2624503171234
 20
1643.795480175104
 30
0.0
  0
VERTEX
  5
38A
  8
0
  6
CONTINUOUS
 62
     7
 10
859.2681092583881
 20
1643.799286115406
 30
0.0
  0
VERTEX
  5
38B
  8
0
  6
CONTINUOUS
 62
     7
 10
859.273722056043
 20
1643.80312383642
 30
0.0
  0
VERTEX
  5
38C
  8
0
  6
CONTINUOUS
 62
     7
 10
859.2792876174112
 20
1643.80699136095
 30
0.0
  0
VERTEX
  5
38D
  8
0
  6
CONTINUOUS
 62
     7
 10
859.2848048498169
 20
1643.810886711802
 30
0.0
  0
VERTEX
  5
38E
  8
0
  6
CONTINUOUS
 62
     7
 10
859.2902726008358
 20
1643.814807833957
 30
0.0
  0
VERTEX
  5
38F
  8
0
  6
CONTINUOUS
 62
     7
 10
859.2956886590354
 20
1643.818751292996
 30
0.0
  0
VERTEX
  5
390
  8
0
  6
CONTINUOUS
 62
     7
 10
859.3010499041455
 20
1643.822712470703
 30
0.0
  0
VERTEX
  5
391
  8
0
  6
CONTINUOUS
 62
     7
 10
859.3063531864042
 20
1643.826686710449
 30
0.0
  0
VERTEX
  5
392
  8
0
  6
CONTINUOUS
 62
     7
 10
859.3115953560491
 20
1643.830669355602
 30
0.0
  0
VERTEX
  5
393
  8
0
  6
CONTINUOUS
 62
     7
 10
859.316773263319
 20
1643.834655749533
 30
0.0
  0
VERTEX
  5
394
  8
0
  6
CONTINUOUS
 62
     7
 10
859.3218837584509
 20
1643.838641235611
 30
0.0
  0
VERTEX
  5
395
  8
0
  6
CONTINUOUS
 62
     7
 10
859.3269236916834
 20
1643.842621157207
 30
0.0
  0
VERTEX
  5
396
  8
0
  6
CONTINUOUS
 62
     7
 10
859.331889913254
 20
1643.84659085769
 30
0.0
  0
VERTEX
  5
397
  8
0
  6
CONTINUOUS
 62
     7
 10
859.3367792734011
 20
1643.850545680429
 30
0.0
  0
VERTEX
  5
398
  8
0
  6
CONTINUOUS
 62
     7
 10
859.3415886223626
 20
1643.854480968795
 30
0.0
  0
VERTEX
  5
399
  8
0
  6
CONTINUOUS
 62
     7
 10
859.346314810376
 20
1643.858392066157
 30
0.0
  0
VERTEX
  5
39A
  8
0
  6
CONTINUOUS
 62
     7
 10
859.3509546876799
 20
1643.862274315885
 30
0.0
  0
VERTEX
  5
39B
  8
0
  6
CONTINUOUS
 62
     7
 10
859.355505104512
 20
1643.866123061349
 30
0.0
  0
VERTEX
  5
39C
  8
0
  6
CONTINUOUS
 62
     7
 10
859.3599629102322
 20
1643.869933644606
 30
0.0
  0
VERTEX
  5
39D
  8
0
  6
CONTINUOUS
 62
     7
 10
859.3643245748582
 20
1643.873700840427
 30
0.0
  0
VERTEX
  5
39E
  8
0
  6
CONTINUOUS
 62
     7
 10
859.3685855984338
 20
1643.877417973037
 30
0.0
  0
VERTEX
  5
39F
  8
0
  6
CONTINUOUS
 62
     7
 10
859.3727413281815
 20
1643.881078138128
 30
0.0
  0
VERTEX
  5
3A0
  8
0
  6
CONTINUOUS
 62
     7
 10
859.3767871113241
 20
1643.884674431389
 30
0.0
  0
VERTEX
  5
3A1
  8
0
  6
CONTINUOUS
 62
     7
 10
859.3807182950837
 20
1643.888199948512
 30
0.0
  0
VERTEX
  5
3A2
  8
0
  6
CONTINUOUS
 62
     7
 10
859.3845302266825
 20
1643.891647785186
 30
0.0
  0
VERTEX
  5
3A3
  8
0
  6
CONTINUOUS
 62
     7
 10
859.3882182533436
 20
1643.895011037102
 30
0.0
  0
VERTEX
  5
3A4
  8
0
  6
CONTINUOUS
 62
     7
 10
859.3917777222889
 20
1643.898282799951
 30
0.0
  0
VERTEX
  5
3A5
  8
0
  6
CONTINUOUS
 62
     7
 10
859.3952039807408
 20
1643.901456169421
 30
0.0
  0
VERTEX
  5
3A6
  8
0
  6
CONTINUOUS
 62
     7
 10
859.398492375913
 20
1643.904524241195
 30
0.0
  0
VERTEX
  5
3A7
  8
0
  6
CONTINUOUS
 62
     7
 10
859.4016357456337
 20
1643.907477559354
 30
0.0
  0
VERTEX
  5
3A8
  8
0
  6
CONTINUOUS
 62
     7
 10
859.4046173569748
 20
1643.910296936212
 30
0.0
  0
VERTEX
  5
3A9
  8
0
  6
CONTINUOUS
 62
     7
 10
859.4074181956337
 20
1643.912960864332
 30
0.0
  0
VERTEX
  5
3AA
  8
0
  6
CONTINUOUS
 62
     7
 10
859.410019247308
 20
1643.915447836272
 30
0.0
  0
VERTEX
  5
3AB
  8
0
  6
CONTINUOUS
 62
     7
 10
859.4124014976954
 20
1643.917736344595
 30
0.0
  0
VERTEX
  5
3AC
  8
0
  6
CONTINUOUS
 62
     7
 10
859.414545932494
 20
1643.919804881863
 30
0.0
  0
VERTEX
  5
3AD
  8
0
  6
CONTINUOUS
 62
     7
 10
859.4164335374008
 20
1643.921631940636
 30
0.0
  0
VERTEX
  5
3AE
  8
0
  6
CONTINUOUS
 62
     7
 10
859.4180466508548
 20
1643.923197388618
 30
0.0
  0
VERTEX
  5
3AF
  8
0
  6
CONTINUOUS
 62
     7
 10
859.4193956646748
 20
1643.924509611445
 30
0.0
  0
VERTEX
  5
3B0
  8
0
  6
CONTINUOUS
 62
     7
 10
859.4205174227033
 20
1643.925603884813
 30
0.0
  0
VERTEX
  5
3B1
  8
0
  6
CONTINUOUS
 62
     7
 10
859.4214498009056
 20
1643.926516533631
 30
0.0
  0
VERTEX
  5
3B2
  8
0
  6
CONTINUOUS
 62
     7
 10
859.4222306752473
 20
1643.927283882811
 30
0.0
  0
VERTEX
  5
3B3
  8
0
  6
CONTINUOUS
 62
     7
 10
859.422897921693
 20
1643.92794225726
 30
0.0
  0
VERTEX
  5
3B4
  8
0
  6
CONTINUOUS
 62
     7
 10
859.4234894162084
 20
1643.92852798189
 30
0.0
  0
VERTEX
  5
3B5
  8
0
  6
CONTINUOUS
 62
     7
 10
859.4240430347585
 20
1643.92907738161
 30
0.0
  0
SEQEND
  5
3BB
  8
0
  6
CONTINUOUS
 62
     7
  0
ARC
  5
1B7
  8
0
  6
CONTINUOUS
 62
     7
 10
858.9240915894585
 20
1643.936045332702
 30
0.0
 40
0.5000000000000815
 50
279.5765884810662
 51
359.2015057738772
  0
LINE
  5
1B8
  8
0
  6
CONTINUOUS
 62
     7
 10
843.6240532635387
 20
1891.929077381613
 30
0.0
 11
843.6240532635333
 21
1642.929077381612
 31
0.0
  0
LINE
  5
1B9
  8
0
  6
CONTINUOUS
 62
     7
 10
564.624053263531
 20
1642.929077381612
 30
0.0
 11
843.6240532635333
 21
1642.929077381612
 31
0.0
  0
LINE
  5
1BA
  8
0
  6
CONTINUOUS
 62
     7
 10
564.624053263531
 20
1891.929077381613
 30
0.0
 11
564.624053263531
 21
1642.929077381612
 31
0.0
  0
LINE
  5
1BB
  8
0
  6
CONTINUOUS
 62
     7
 10
564.624053263531
 20
1891.929077381613
 30
0.0
 11
843.6240532635387
 21
1891.929077381613
 31
0.0
  0
LINE
  5
1BC
  8
0
  6
CONTINUOUS
 62
     7
 10
844.6240532635333
 20
1642.929077381612
 30
0.0
 11
843.6240532635333
 21
1642.929077381612
 31
0.0
  0
LINE
  5
1BD
  8
0
  6
CONTINUOUS
 62
     7
 10
844.6240532635387
 20
1891.929077381613
 30
0.0
 11
844.6240532635333
 21
1642.929077381612
 31
0.0
  0
LINE
  5
1BE
  8
0
  6
CONTINUOUS
 62
     7
 10
844.6240532635387
 20
1891.929077381613
 30
0.0
 11
843.6240532635387
 21
1891.929077381613
 31
0.0
  0
LINE
  5
1BF
  8
0
  6
CONTINUOUS
 62
     7
 10
844.6240532635387
 20
1892.429077381611
 30
0.0
 11
844.6240532635387
 21
1891.929077381613
 31
0.0
  0
LINE
  5
1C0
  8
0
  6
CONTINUOUS
 62
     7
 10
564.624053263531
 20
1891.929077381613
 30
0.0
 11
844.6240532635387
 21
1891.929077381613
 31
0.0
  0
LINE
  5
1C1
  8
0
  6
CONTINUOUS
 62
     7
 10
564.624053263531
 20
1892.429077381612
 30
0.0
 11
564.624053263531
 21
1891.929077381613
 31
0.0
  0
LINE
  5
1C2
  8
0
  6
CONTINUOUS
 62
     7
 10
564.624053263531
 20
1892.429077381612
 30
0.0
 11
844.6240532635387
 21
1892.429077381611
 31
0.0
  0
LINE
  5
1C3
  8
0
  6
CONTINUOUS
 62
     7
 10
844.6240532635333
 20
1642.929077381612
 30
0.0
 11
564.624053263531
 21
1642.929077381612
 31
0.0
  0
LINE
  5
1C4
  8
0
  6
CONTINUOUS
 62
     7
 10
844.6240532635333
 20
1642.429077381612
 30
0.0
 11
844.6240532635333
 21
1642.929077381612
 31
0.0
  0
LINE
  5
1C5
  8
0
  6
CONTINUOUS
 62
     7
 10
564.624053263531
 20
1642.429077381612
 30
0.0
 11
844.6240532635333
 21
1642.429077381612
 31
0.0
  0
LINE
  5
1C6
  8
0
  6
CONTINUOUS
 62
     7
 10
564.624053263531
 20
1642.429077381612
 30
0.0
 11
564.624053263531
 21
1642.929077381612
 31
0.0
  0
ARC
  5
1C7
  8
0
  6
CONTINUOUS
 62
     7
 10
3302.555582294204
 20
867.0481160507877
 30
0.0
 40
6.0
 50
180.0
 51
0.0000000000005428
  0
LINE
  5
1C8
  8
0
  6
CONTINUOUS
 62
     7
 10
3308.555582294204
 20
909.0481160507877
 30
0.0
 11
3308.555582294204
 21
867.0481160507877
 31
0.0
  0
ARC
  5
1C9
  8
0
  6
CONTINUOUS
 62
     7
 10
3302.555582294204
 20
909.0481160507877
 30
0.0
 40
6.0
 50
0.0
 51
180.0
  0
LINE
  5
1CA
  8
0
  6
CONTINUOUS
 62
     7
 10
3296.555582294204
 20
867.0481160507877
 30
0.0
 11
3296.555582294204
 21
909.0481160507877
 31
0.0
  0
ARC
  5
1CB
  8
0
  6
CONTINUOUS
 62
     7
 10
1573.555582294204
 20
867.0481160507877
 30
0.0
 40
6.000000000000227
 50
180.0
 51
0.0000000000005428
  0
LINE
  5
1CC
  8
0
  6
CONTINUOUS
 62
     7
 10
1579.555582294204
 20
909.0481160507877
 30
0.0
 11
1579.555582294204
 21
867.0481160507877
 31
0.0
  0
ARC
  5
1CD
  8
0
  6
CONTINUOUS
 62
     7
 10
1573.555582294204
 20
909.0481160507877
 30
0.0
 40
6.000000000000227
 50
0.0
 51
180.0
  0
LINE
  5
1CE
  8
0
  6
CONTINUOUS
 62
     7
 10
1567.555582294204
 20
867.0481160507877
 30
0.0
 11
1567.555582294204
 21
909.0481160507877
 31
0.0
  0
LINE
  5
1CF
  8
0
  6
CONTINUOUS
 62
     7
 10
1555.055582294204
 20
710.5481160507878
 30
0.0
 11
3321.055582294204
 21
710.5481160507878
 31
0.0
  0
LINE
  5
1D0
  8
0
  6
CONTINUOUS
 62
     7
 10
3321.055582294204
 20
708.0481160507878
 30
0.0
 11
3321.055582294204
 21
710.5481160507878
 31
0.0
  0
LINE
  5
1D1
  8
0
  6
CONTINUOUS
 62
     7
 10
1555.055582294204
 20
708.0481160507878
 30
0.0
 11
3321.055582294204
 21
708.0481160507878
 31
0.0
  0
LINE
  5
1D2
  8
0
  6
CONTINUOUS
 62
     7
 10
1555.055582294204
 20
708.0481160507878
 30
0.0
 11
1555.055582294204
 21
710.5481160507878
 31
0.0
  0
LINE
  5
1D3
  8
0
  6
CONTINUOUS
 62
     7
 10
1555.055582294204
 20
725.0481160507878
 30
0.0
 11
3321.055582294204
 21
725.0481160507878
 31
0.0
  0
LINE
  5
1D4
  8
0
  6
CONTINUOUS
 62
     7
 10
3321.055582294204
 20
722.5481160507877
 30
0.0
 11
3321.055582294204
 21
725.0481160507878
 31
0.0
  0
LINE
  5
1D5
  8
0
  6
CONTINUOUS
 62
     7
 10
1555.055582294204
 20
722.5481160507877
 30
0.0
 11
3321.055582294204
 21
722.5481160507877
 31
0.0
  0
LINE
  5
1D6
  8
0
  6
CONTINUOUS
 62
     7
 10
1555.055582294204
 20
722.5481160507877
 30
0.0
 11
1555.055582294204
 21
725.0481160507878
 31
0.0
  0
LINE
  5
1D7
  8
0
  6
CONTINUOUS
 62
     7
 10
1555.055582294204
 20
722.5481160507878
 30
0.0
 11
1555.055582294204
 21
710.5481160507878
 31
0.0
  0
LINE
  5
1D8
  8
0
  6
CONTINUOUS
 62
     7
 10
3321.055582294204
 20
722.5481160507878
 30
0.0
 11
3321.055582294204
 21
710.5481160507878
 31
0.0
  0
LINE
  5
1D9
  8
0
  6
CONTINUOUS
 62
     7
 10
1555.055582294204
 20
942.5481160507878
 30
0.0
 11
3321.055582294204
 21
942.5481160507878
 31
0.0
  0
LINE
  5
1DA
  8
0
  6
CONTINUOUS
 62
     7
 10
3321.055582294204
 20
940.0481160507878
 30
0.0
 11
3321.055582294204
 21
942.5481160507878
 31
0.0
  0
LINE
  5
1DB
  8
0
  6
CONTINUOUS
 62
     7
 10
1555.055582294204
 20
940.0481160507878
 30
0.0
 11
3321.055582294204
 21
940.0481160507878
 31
0.0
  0
LINE
  5
1DC
  8
0
  6
CONTINUOUS
 62
     7
 10
1555.055582294204
 20
940.0481160507878
 30
0.0
 11
1555.055582294204
 21
942.5481160507878
 31
0.0
  0
LINE
  5
1DD
  8
0
  6
CONTINUOUS
 62
     7
 10
1555.055582294204
 20
957.0481160507877
 30
0.0
 11
3321.055582294204
 21
957.0481160507877
 31
0.0
  0
LINE
  5
1DE
  8
0
  6
CONTINUOUS
 62
     7
 10
3321.055582294204
 20
954.5481160507877
 30
0.0
 11
3321.055582294204
 21
957.0481160507877
 31
0.0
  0
LINE
  5
1DF
  8
0
  6
CONTINUOUS
 62
     7
 10
1555.055582294204
 20
954.5481160507877
 30
0.0
 11
3321.055582294204
 21
954.5481160507877
 31
0.0
  0
LINE
  5
1E0
  8
0
  6
CONTINUOUS
 62
     7
 10
1555.055582294204
 20
954.5481160507877
 30
0.0
 11
1555.055582294204
 21
957.0481160507877
 31
0.0
  0
LINE
  5
1E1
  8
0
  6
CONTINUOUS
 62
     7
 10
3321.055582294204
 20
954.5481160507878
 30
0.0
 11
3321.055582294204
 21
942.5481160507878
 31
0.0
  0
LINE
  5
1E2
  8
0
  6
CONTINUOUS
 62
     7
 10
1555.055582294204
 20
954.5481160507878
 30
0.0
 11
1555.055582294204
 21
942.5481160507878
 31
0.0
  0
LINE
  5
1E3
  8
0
  6
CONTINUOUS
 62
     7
 10
3323.555582294204
 20
957.048116050789
 30
0.0
 11
3323.555582294204
 21
708.0481160507877
 31
0.0
  0
LINE
  5
1E4
  8
0
  6
CONTINUOUS
 62
     7
 10
3321.055582294204
 20
708.0481160507877
 30
0.0
 11
3323.555582294204
 21
708.0481160507877
 31
0.0
  0
LINE
  5
1E5
  8
0
  6
CONTINUOUS
 62
     7
 10
3321.055582294204
 20
957.048116050789
 30
0.0
 11
3321.055582294204
 21
708.0481160507877
 31
0.0
  0
LINE
  5
1E6
  8
0
  6
CONTINUOUS
 62
     7
 10
3321.055582294204
 20
957.048116050789
 30
0.0
 11
3323.555582294204
 21
957.048116050789
 31
0.0
  0
LINE
  5
1E7
  8
0
  6
CONTINUOUS
 62
     7
 10
1540.555582294204
 20
957.0481160507891
 30
0.0
 11
1540.555582294204
 21
708.0481160507877
 31
0.0
  0
LINE
  5
1E8
  8
0
  6
CONTINUOUS
 62
     7
 10
1538.055582294204
 20
708.0481160507877
 30
0.0
 11
1540.555582294204
 21
708.0481160507877
 31
0.0
  0
LINE
  5
1E9
  8
0
  6
CONTINUOUS
 62
     7
 10
1538.055582294204
 20
957.0481160507891
 30
0.0
 11
1538.055582294204
 21
708.0481160507877
 31
0.0
  0
LINE
  5
1EA
  8
0
  6
CONTINUOUS
 62
     7
 10
1538.055582294204
 20
957.0481160507891
 30
0.0
 11
1540.555582294204
 21
957.0481160507891
 31
0.0
  0
LINE
  5
1EB
  8
0
  6
CONTINUOUS
 62
     7
 10
3338.055582294204
 20
957.048116050789
 30
0.0
 11
3338.055582294204
 21
708.0481160507877
 31
0.0
  0
LINE
  5
1EC
  8
0
  6
CONTINUOUS
 62
     7
 10
3335.555582294204
 20
708.0481160507877
 30
0.0
 11
3338.055582294204
 21
708.0481160507877
 31
0.0
  0
LINE
  5
1ED
  8
0
  6
CONTINUOUS
 62
     7
 10
3335.555582294204
 20
957.048116050789
 30
0.0
 11
3335.555582294204
 21
708.0481160507877
 31
0.0
  0
LINE
  5
1EE
  8
0
  6
CONTINUOUS
 62
     7
 10
3335.555582294204
 20
957.048116050789
 30
0.0
 11
3338.055582294204
 21
957.048116050789
 31
0.0
  0
LINE
  5
1EF
  8
0
  6
CONTINUOUS
 62
     7
 10
1555.055582294204
 20
957.0481160507891
 30
0.0
 11
1555.055582294204
 21
708.0481160507877
 31
0.0
  0
LINE
  5
1F0
  8
0
  6
CONTINUOUS
 62
     7
 10
1552.555582294204
 20
708.0481160507877
 30
0.0
 11
1555.055582294204
 21
708.0481160507877
 31
0.0
  0
LINE
  5
1F1
  8
0
  6
CONTINUOUS
 62
     7
 10
1552.555582294204
 20
957.0481160507891
 30
0.0
 11
1552.555582294204
 21
708.0481160507877
 31
0.0
  0
LINE
  5
1F2
  8
0
  6
CONTINUOUS
 62
     7
 10
1552.555582294204
 20
957.0481160507891
 30
0.0
 11
1555.055582294204
 21
957.0481160507891
 31
0.0
  0
LINE
  5
1F3
  8
0
  6
CONTINUOUS
 62
     7
 10
3335.555582294204
 20
708.0481160507877
 30
0.0
 11
3323.555582294204
 21
708.0481160507877
 31
0.0
  0
LINE
  5
1F4
  8
0
  6
CONTINUOUS
 62
     7
 10
3335.555582294204
 20
957.048116050789
 30
0.0
 11
3323.555582294204
 21
957.048116050789
 31
0.0
  0
LINE
  5
1F5
  8
0
  6
CONTINUOUS
 62
     7
 10
1552.555582294204
 20
708.0481160507877
 30
0.0
 11
1540.555582294204
 21
708.0481160507877
 31
0.0
  0
LINE
  5
1F6
  8
0
  6
CONTINUOUS
 62
     7
 10
1552.555582294204
 20
957.0481160507891
 30
0.0
 11
1540.555582294204
 21
957.0481160507891
 31
0.0
  0
LINE
  5
1F7
  8
0
  6
CONTINUOUS
 62
     7
 10
1555.055582294204
 20
957.5481160507879
 30
0.0
 11
1555.055582294204
 21
957.0481160507891
 31
0.0
  0
LINE
  5
1F8
  8
0
  6
CONTINUOUS
 62
     7
 10
1538.055582294204
 20
957.0481160507891
 30
0.0
 11
1555.055582294204
 21
957.0481160507891
 31
0.0
  0
LINE
  5
1F9
  8
0
  6
CONTINUOUS
 62
     7
 10
1538.055582294204
 20
957.5481160507879
 30
0.0
 11
1538.055582294204
 21
957.0481160507891
 31
0.0
  0
LINE
  5
1FA
  8
0
  6
CONTINUOUS
 62
     7
 10
1538.055582294204
 20
957.5481160507879
 30
0.0
 11
1555.055582294204
 21
957.5481160507879
 31
0.0
  0
LINE
  5
1FB
  8
0
  6
CONTINUOUS
 62
     7
 10
3338.055582294204
 20
957.5481160507879
 30
0.0
 11
3338.055582294204
 21
957.048116050789
 31
0.0
  0
LINE
  5
1FC
  8
0
  6
CONTINUOUS
 62
     7
 10
3321.055582294204
 20
957.048116050789
 30
0.0
 11
3338.055582294204
 21
957.048116050789
 31
0.0
  0
LINE
  5
1FD
  8
0
  6
CONTINUOUS
 62
     7
 10
3321.055582294204
 20
957.5481160507879
 30
0.0
 11
3321.055582294204
 21
957.048116050789
 31
0.0
  0
LINE
  5
1FE
  8
0
  6
CONTINUOUS
 62
     7
 10
3321.055582294204
 20
957.5481160507879
 30
0.0
 11
3338.055582294204
 21
957.5481160507879
 31
0.0
  0
LINE
  5
1FF
  8
0
  6
CONTINUOUS
 62
     7
 10
1555.055582294204
 20
708.0481160507877
 30
0.0
 11
1538.055582294204
 21
708.0481160507877
 31
0.0
  0
LINE
  5
200
  8
0
  6
CONTINUOUS
 62
     7
 10
1555.055582294204
 20
707.5481160507878
 30
0.0
 11
1555.055582294204
 21
708.0481160507877
 31
0.0
  0
LINE
  5
201
  8
0
  6
CONTINUOUS
 62
     7
 10
1538.055582294204
 20
707.5481160507878
 30
0.0
 11
1538.055582294204
 21
708.0481160507877
 31
0.0
  0
LINE
  5
202
  8
0
  6
CONTINUOUS
 62
     7
 10
1538.055582294204
 20
707.5481160507878
 30
0.0
 11
1555.055582294204
 21
707.5481160507878
 31
0.0
  0
LINE
  5
203
  8
0
  6
CONTINUOUS
 62
     7
 10
3338.055582294204
 20
708.0481160507877
 30
0.0
 11
3321.055582294204
 21
708.0481160507877
 31
0.0
  0
LINE
  5
204
  8
0
  6
CONTINUOUS
 62
     7
 10
3338.055582294204
 20
707.5481160507877
 30
0.0
 11
3338.055582294204
 21
708.0481160507877
 31
0.0
  0
LINE
  5
205
  8
0
  6
CONTINUOUS
 62
     7
 10
3321.055582294204
 20
707.5481160507877
 30
0.0
 11
3338.055582294204
 21
707.5481160507877
 31
0.0
  0
LINE
  5
206
  8
0
  6
CONTINUOUS
 62
     7
 10
3321.055582294204
 20
707.5481160507877
 30
0.0
 11
3321.055582294204
 21
708.0481160507877
 31
0.0
  0
ENDSEC
  0
EOF
