  0
SECTION
  2
HEADER
  9
$ACADVER
  1
AC1006
  9
$DWGCODEPAGE
  3
dos932
  9
$INSBASE
 10
0.0
 20
0.0
 30
0.0
  9
$EXTMIN
 10
0.0
 20
0.0
  9
$EXTMAX
 10
5000.0
 20
3500.0
  9
$LIMMIN
 10
0.0
 20
0.0
  9
$LIMMAX
 10
5000.0
 20
3500.0
  9
$ORTHOMODE
 70
     0
  9
$REGENMODE
 70
     1
  9
$FILLMODE
 70
     1
  9
$QTEXTMODE
 70
     0
  9
$MIRRTEXT
 70
     1
  9
$DRAGMODE
 70
     2
  9
$LTSCALE
 40
1.0
  9
$OSMODE
 70
    37
  9
$ATTMODE
 70
     1
  9
$TEXTSIZE
 40
3.5
  9
$TRACEWID
 40
1.0
  9
$TEXTSTYLE
  7
STANDARD
  9
$CLAYER
  8
0
  9
$CELTYPE
  6
BYLAYER
  9
$CECOLOR
 62
   256
  9
$DIMSCALE
 40
1.0
  9
$DIMASZ
 40
3.302
  9
$DIMEXO
 40
1.0
  9
$DIMDLI
 40
3.75
  9
$DIMRND
 40
0.0
  9
$DIMDLE
 40
0.0
  9
$DIMEXE
 40
1.0
  9
$DIMTP
 40
0.0
  9
$DIMTM
 40
0.0
  9
$DIMTXT
 40
3.5
  9
$DIMCEN
 40
2.5
  9
$DIMTSZ
 40
0.0
  9
$DIMTOL
 70
     0
  9
$DIMLIM
 70
     0
  9
$DIMTIH
 70
     1
  9
$DIMTOH
 70
     1
  9
$DIMSE1
 70
     0
  9
$DIMSE2
 70
     0
  9
$DIMTAD
 70
     1
  9
$DIMZIN
 70
     0
  9
$DIMBLK
  1

  9
$DIMASO
 70
     1
  9
$DIMSHO
 70
     1
  9
$DIMPOST
  1

  9
$DIMAPOST
  1

  9
$DIMALT
 70
     0
  9
$DIMALTD
 70
     3
  9
$DIMALTF
 40
0.0393700787401575
  9
$DIMLFAC
 40
1.0
  9
$DIMTOFL
 70
     1
  9
$DIMTVP
 40
0.0
  9
$DIMTIX
 70
     0
  9
$DIMSOXD
 70
     0
  9
$DIMSAH
 70
     0
  9
$DIMBLK1
  1

  9
$DIMBLK2
  1

  9
$LUNITS
 70
     2
  9
$LUPREC
 70
     3
  9
$SKETCHINC
 40
1.0
  9
$FILLETRAD
 40
10.0
  9
$AUNITS
 70
     0
  9
$AUPREC
 70
     2
  9
$MENU
  1
.
  9
$ELEVATION
 40
0.0
  9
$THICKNESS
 40
0.0
  9
$LIMCHECK
 70
     0
  9
$CHAMFERA
 40
0.0
  9
$CHAMFERB
 40
0.0
  9
$SKPOLY
 70
     0
  9
$TDCREATE
 40
2459868.374770648
  9
$TDUPDATE
 40
2460139.276098831
  9
$TDINDWG
 40
0.0000000116
  9
$TDUSRTIMER
 40
0.0000000116
  9
$USRTIMER
 70
     1
  9
$ANGBASE
 50
0.0
  9
$ANGDIR
 70
     0
  9
$PDMODE
 70
     0
  9
$PDSIZE
 40
-1.0
  9
$PLINEWID
 40
0.0
  9
$COORDS
 70
     1
  9
$SPLFRAME
 70
     0
  9
$SPLINETYPE
 70
     6
  9
$SPLINESEGS
 70
     8
  9
$ATTDIA
 70
     0
  9
$ATTREQ
 70
     1
  9
$HANDLING
 70
     1
  9
$HANDSEED
  5
55F
  9
$SURFTAB1
 70
     6
  9
$SURFTAB2
 70
     6
  9
$SURFTYPE
 70
     6
  9
$SURFU
 70
     6
  9
$SURFV
 70
     6
  9
$UCSNAME
  2

  9
$UCSORG
 10
0.0
 20
0.0
 30
0.0
  9
$UCSXDIR
 10
1.0
 20
0.0
 30
0.0
  9
$UCSYDIR
 10
0.0
 20
1.0
 30
0.0
  9
$USERI1
 70
     0
  9
$USERI2
 70
     0
  9
$USERI3
 70
     0
  9
$USERI4
 70
     0
  9
$USERI5
 70
     0
  9
$USERR1
 40
0.0
  9
$USERR2
 40
0.0
  9
$USERR3
 40
0.0
  9
$USERR4
 40
0.0
  9
$USERR5
 40
0.0
  9
$WORLDVIEW
 70
     1
  0
ENDSEC
  0
SECTION
  2
TABLES
  0
TABLE
  2
VPORT
 70
     1
  0
VPORT
  2
*ACTIVE
 70
     0
 10
0.0
 20
0.0
 11
1.0
 21
1.0
 12
2500.0
 22
1750.0
 13
0.0
 23
0.0
 14
10.0
 24
10.0
 15
10.0
 25
10.0
 16
0.0
 26
0.0
 36
1.0
 17
0.0
 27
0.0
 37
0.0
 40
3500.0
 41
1.428571428571429
 42
50.0
 43
0.0
 44
0.0
 50
0.0
 51
0.0
 71
     0
 72
  2000
 73
     1
 74
     3
 75
     0
 76
     0
 77
     0
 78
     0
  0
ENDTAB
  0
TABLE
  2
LTYPE
 70
     6
  0
LTYPE
  2
CONTINUOUS
 70
     0
  3
Solid line
 72
    65
 73
     0
 40
0.0
  0
LTYPE
  2
HIDDEN
 70
     0
  3
Hidden __ __ __ __ __ __ __ __ __ __ __ __ __ __
 72
    65
 73
     2
 40
1.905
 49
1.27
 49
-0.635
  0
LTYPE
  2
PHANTOM
 70
     0
  3
Phantom ______  __  __  ______  __  __  ______
 72
    65
 73
     6
 40
12.7
 49
6.35
 49
-1.27
 49
1.27
 49
-1.27
 49
1.27
 49
-1.27
  0
LTYPE
  2
CENTER
 70
     0
  3
Center ____ _ ____ _ ____ _ ____ _ ____ _ ____
 72
    65
 73
     4
 40
10.16
 49
6.35
 49
-1.27
 49
1.27
 49
-1.27
  0
LTYPE
  2
CENTERX2
 70
     0
  3
Center (2x) ________  __  ________  __  _____
 72
    65
 73
     4
 40
20.32
 49
12.7
 49
-2.54
 49
2.54
 49
-2.54
  0
LTYPE
  2
DOT2
 70
     0
  3
Dot (.5x) ........................................
 72
    65
 73
     2
 40
0.635
 49
0.0
 49
-0.635
  0
ENDTAB
  0
TABLE
  2
LAYER
 70
     3
  0
LAYER
  2
0
 70
     0
 62
     7
  6
CONTINUOUS
  0
LAYER
  2
SLD-0
 70
     0
 62
   179
  6
CONTINUOUS
  0
LAYER
  2
寸法
 70
     0
 62
   179
  6
CONTINUOUS
  0
ENDTAB
  0
TABLE
  2
STYLE
 70
     2
  0
STYLE
  2
STANDARD
 70
     0
 40
0.0
 41
1.0
 50
0.0
 71
     0
 42
3.5
  3
txt
  4
bigfont
  0
STYLE
  2
SLDTEXTSTYLE0
 70
     0
 40
0.0
 41
0.75
 50
0.0
 71
     0
 42
3.5
  3
TXT
  4
bigfont
  0
ENDTAB
  0
TABLE
  2
VIEW
 70
     0
  0
ENDTAB
  0
TABLE
  2
UCS
 70
     0
  0
ENDTAB
  0
ENDSEC
  0
SECTION
  2
BLOCKS
  0
ENDSEC
  0
SECTION
  2
ENTITIES
  0
LINE
  5
75
  8
0
  6
CONTINUOUS
 62
     7
 10
4801.663086450988
 20
279.1403827252221
 30
0.0
 11
3345.906222050112
 21
279.1403827252221
 31
0.0
  0
TEXT
  5
77
  8
0
  6
CONTINUOUS
 62
     7
 10
1830.834345569533
 20
2508.347429666146
 30
0.0
 40
52.91666666666666
  1
＜正面＞
 41
0.75
  7
SLDTEXTSTYLE0
  0
TEXT
  5
78
  8
0
  6
CONTINUOUS
 62
     7
 10
3377.814243189123
 20
326.489054196763
 30
0.0
 40
52.91666666666666
  1
品名：
 41
0.75
  7
SLDTEXTSTYLE0
  0
TEXT
  5
79
  8
0
  6
CONTINUOUS
 62
     7
 10
4446.663437481703
 20
332.3177187478654
 30
0.0
 40
52.91666666666666
  1
Pamouna
 41
0.75
  7
SLDTEXTSTYLE0
  0
TEXT
  5
7A
  8
寸法
  6
CONTINUOUS
 62
     7
 10
4688.007304885427
 20
165.7088516276312
 30
0.0
 40
52.91666666666666
  1
1/1
 41
0.75
  7
SLDTEXTSTYLE0
  0
TEXT
  5
7B
  8
寸法
  6
CONTINUOUS
 62
     7
 10
3611.283129349216
 20
332.2465883182592
 30
0.0
 40
66.14583333333331
  1
MA-NT370E
 41
0.75
  7
SLDTEXTSTYLE0
  0
TEXT
  5
7C
  8
寸法
  6
CONTINUOUS
 62
     7
 10
4198.79693921183
 20
165.7088544215994
 30
0.0
 40
52.91666666666666
  1
2022/10/15
 41
0.75
  7
SLDTEXTSTYLE0
  0
TEXT
  5
7D
  8
寸法
  6
CONTINUOUS
 62
     7
 10
3675.466126650375
 20
2500.297128789739
 30
0.0
 40
52.91666666666666
  1
＜右側面＞
 41
0.75
  7
SLDTEXTSTYLE0
  0
TEXT
  5
7E
  8
0
  6
CONTINUOUS
 62
     7
 10
682.5718587193734
 20
2495.347896067605
 30
0.0
 40
52.91666666666666
  1
＜左側面＞
 41
0.75
  7
SLDTEXTSTYLE0
  0
TEXT
  5
7F
  8
0
  6
CONTINUOUS
 62
     7
 10
1852.546908235583
 20
3146.642747282924
 30
0.0
 40
52.91666666666666
  1
＜上面＞
 41
0.75
  7
SLDTEXTSTYLE0
  0
LINE
  5
80
  8
0
  6
CONTINUOUS
 62
     7
 10
2203.212923859568
 20
2359.563631036081
 30
0.0
 11
2203.212923859568
 21
613.563631036082
 31
0.0
  0
LINE
  5
81
  8
0
  6
CONTINUOUS
 62
     7
 10
2575.212923859568
 20
2359.563631036081
 30
0.0
 11
2203.212923859568
 21
2359.563631036081
 31
0.0
  0
LINE
  5
82
  8
0
  6
CONTINUOUS
 62
     7
 10
2575.212923859568
 20
613.563631036082
 30
0.0
 11
2575.212923859568
 21
2359.563631036081
 31
0.0
  0
LINE
  5
83
  8
0
  6
CONTINUOUS
 62
     7
 10
2203.212923859568
 20
613.563631036082
 30
0.0
 11
2575.212923859568
 21
613.563631036082
 31
0.0
  0
LINE
  5
84
  8
0
  6
CONTINUOUS
 62
     7
 10
2576.712923859568
 20
2361.563631036082
 30
0.0
 11
2559.212923859568
 21
2361.563631036082
 31
0.0
  0
LINE
  5
85
  8
0
  6
CONTINUOUS
 62
     7
 10
2576.712923859568
 20
611.5636310360821
 30
0.0
 11
2576.712923859568
 21
2361.563631036082
 31
0.0
  0
LINE
  5
86
  8
0
  6
CONTINUOUS
 62
     7
 10
2559.212923859568
 20
611.5636310360821
 30
0.0
 11
2576.712923859568
 21
611.5636310360821
 31
0.0
  0
LINE
  5
87
  8
0
  6
CONTINUOUS
 62
     7
 10
2559.212923859568
 20
2361.563631036082
 30
0.0
 11
2559.212923859568
 21
2359.563631036081
 31
0.0
  0
LINE
  5
88
  8
0
  6
CONTINUOUS
 62
     7
 10
2559.212923859568
 20
613.5636310360821
 30
0.0
 11
2559.212923859568
 21
611.5636310360821
 31
0.0
  0
LINE
  5
89
  8
0
  6
CONTINUOUS
 62
     7
 10
2219.212923859568
 20
611.5636310360821
 30
0.0
 11
2219.212923859568
 21
613.563631036082
 31
0.0
  0
LINE
  5
8A
  8
0
  6
CONTINUOUS
 62
     7
 10
2219.212923859568
 20
2359.563631036081
 30
0.0
 11
2219.212923859568
 21
2361.563631036082
 31
0.0
  0
LINE
  5
8B
  8
0
  6
CONTINUOUS
 62
     7
 10
2201.712923859568
 20
2361.563631036082
 30
0.0
 11
2201.712923859568
 21
611.5636310360821
 31
0.0
  0
LINE
  5
8C
  8
0
  6
CONTINUOUS
 62
     7
 10
2219.212923859568
 20
2361.563631036082
 30
0.0
 11
2201.712923859568
 21
2361.563631036082
 31
0.0
  0
LINE
  5
8D
  8
0
  6
CONTINUOUS
 62
     7
 10
2201.712923859568
 20
611.5636310360821
 30
0.0
 11
2219.212923859568
 21
611.5636310360821
 31
0.0
  0
LINE
  5
8E
  8
0
  6
CONTINUOUS
 62
     7
 10
2559.212923859568
 20
612.063631036082
 30
0.0
 11
2219.212923859568
 21
612.063631036082
 31
0.0
  0
LINE
  5
8F
  8
0
  6
CONTINUOUS
 62
     7
 10
2559.212923859568
 20
2361.063631036082
 30
0.0
 11
2219.212923859568
 21
2361.063631036082
 31
0.0
  0
LINE
  5
90
  8
0
  6
CONTINUOUS
 62
     7
 10
948.5165600276096
 20
1773.063631036082
 30
0.0
 11
946.5165600276096
 21
1773.063631036082
 31
0.0
  0
LINE
  5
91
  8
0
  6
CONTINUOUS
 62
     7
 10
946.5165600276096
 20
1738.063631036082
 30
0.0
 11
948.5165600276096
 21
1738.063631036082
 31
0.0
  0
LINE
  5
92
  8
0
  6
CONTINUOUS
 62
     7
 10
946.5165600276096
 20
2228.563631036082
 30
0.0
 11
948.5165600276096
 21
2228.563631036082
 31
0.0
  0
LINE
  5
93
  8
0
  6
CONTINUOUS
 62
     7
 10
948.5165600276096
 20
800.563631036082
 30
0.0
 11
946.5165600276096
 21
800.563631036082
 31
0.0
  0
LINE
  5
94
  8
0
  6
CONTINUOUS
 62
     7
 10
948.5165600276096
 20
1291.063631036082
 30
0.0
 11
946.5165600276096
 21
1291.063631036082
 31
0.0
  0
LINE
  5
95
  8
0
  6
CONTINUOUS
 62
     7
 10
946.5165600276096
 20
1256.063631036082
 30
0.0
 11
948.5165600276096
 21
1256.063631036082
 31
0.0
  0
LINE
  5
96
  8
0
  6
CONTINUOUS
 62
     7
 10
946.6513751025568
 20
2287.938631036081
 30
0.0
 11
946.6513751025562
 21
2287.01363103608
 31
0.0
  0
LINE
  5
97
  8
0
  6
CONTINUOUS
 62
     7
 10
946.6513751025476
 20
2272.113631036079
 30
0.0
 11
946.651375102547
 21
2271.18863103608
 31
0.0
  0
LINE
  5
98
  8
0
  6
CONTINUOUS
 62
     7
 10
946.651375102547
 20
2271.18863103608
 30
0.0
 11
946.5165600276097
 21
2271.18863103608
 31
0.0
  0
LINE
  5
99
  8
0
  6
CONTINUOUS
 62
     7
 10
946.5165600276097
 20
2287.938631036081
 30
0.0
 11
946.6513751025568
 21
2287.938631036081
 31
0.0
  0
LINE
  5
9A
  8
0
  6
CONTINUOUS
 62
     7
 10
948.016560027618
 20
2271.188631036081
 30
0.0
 11
946.651375102547
 21
2271.18863103608
 31
0.0
  0
LINE
  5
9B
  8
0
  6
CONTINUOUS
 62
     7
 10
946.6513751025568
 20
2287.938631036081
 30
0.0
 11
948.0165600276079
 21
2287.938631036081
 31
0.0
  0
LINE
  5
9C
  8
0
  6
CONTINUOUS
 62
     7
 10
946.6513751025568
 20
701.9386310360812
 30
0.0
 11
946.6513751025562
 21
701.0136310360801
 31
0.0
  0
LINE
  5
9D
  8
0
  6
CONTINUOUS
 62
     7
 10
946.6513751025476
 20
686.1136310360793
 30
0.0
 11
946.651375102547
 21
685.1886310360803
 31
0.0
  0
LINE
  5
9E
  8
0
  6
CONTINUOUS
 62
     7
 10
946.651375102547
 20
685.1886310360803
 30
0.0
 11
946.5165600276084
 21
685.1886310360804
 31
0.0
  0
LINE
  5
9F
  8
0
  6
CONTINUOUS
 62
     7
 10
946.5165600276084
 20
701.9386310360809
 30
0.0
 11
946.6513751025568
 21
701.9386310360812
 31
0.0
  0
LINE
  5
A0
  8
0
  6
CONTINUOUS
 62
     7
 10
948.016560027618
 20
685.1886310360806
 30
0.0
 11
946.651375102547
 21
685.1886310360803
 31
0.0
  0
LINE
  5
A1
  8
0
  6
CONTINUOUS
 62
     7
 10
946.6513751025568
 20
701.9386310360812
 30
0.0
 11
948.0165600276079
 21
701.9386310360809
 31
0.0
  0
LINE
  5
A2
  8
0
  6
CONTINUOUS
 62
     7
 10
946.6513751025568
 20
1521.938631036081
 30
0.0
 11
946.6513751025564
 21
1521.01363103608
 31
0.0
  0
LINE
  5
A3
  8
0
  6
CONTINUOUS
 62
     7
 10
946.6513751025476
 20
1506.113631036079
 30
0.0
 11
946.651375102547
 21
1505.188631036081
 31
0.0
  0
LINE
  5
A4
  8
0
  6
CONTINUOUS
 62
     7
 10
946.651375102547
 20
1505.188631036081
 30
0.0
 11
946.5165600276084
 21
1505.188631036081
 31
0.0
  0
LINE
  5
A5
  8
0
  6
CONTINUOUS
 62
     7
 10
946.5165600276084
 20
1521.938631036081
 30
0.0
 11
946.6513751025568
 21
1521.938631036081
 31
0.0
  0
LINE
  5
A6
  8
0
  6
CONTINUOUS
 62
     7
 10
948.016560027618
 20
1505.188631036081
 30
0.0
 11
946.651375102547
 21
1505.188631036081
 31
0.0
  0
LINE
  5
A7
  8
0
  6
CONTINUOUS
 62
     7
 10
946.6513751025568
 20
1521.938631036081
 30
0.0
 11
948.0165600276079
 21
1521.938631036081
 31
0.0
  0
LINE
  5
A8
  8
0
  6
CONTINUOUS
 62
     7
 10
948.016560027608
 20
2288.51958917514
 30
0.0
 11
948.5165600276097
 21
2288.51958917514
 31
0.0
  0
LINE
  5
A9
  8
0
  6
CONTINUOUS
 62
     7
 10
948.0165600276076
 20
2286.963631035848
 30
0.0
 11
948.5165600276075
 21
2286.963631035848
 31
0.0
  0
LINE
  5
AA
  8
0
  6
CONTINUOUS
 62
     7
 10
948.0165600276076
 20
2286.963631035848
 30
0.0
 11
948.016560027608
 21
2288.51958917514
 31
0.0
  0
LINE
  5
AB
  8
0
  6
CONTINUOUS
 62
     7
 10
948.5165600276097
 20
2270.607672897011
 30
0.0
 11
948.0165600276147
 21
2270.607672897012
 31
0.0
  0
LINE
  5
AC
  8
0
  6
CONTINUOUS
 62
     7
 10
948.0165600276147
 20
2270.607672897012
 30
0.0
 11
948.0165600276233
 21
2272.163631036299
 31
0.0
  0
LINE
  5
AD
  8
0
  6
CONTINUOUS
 62
     7
 10
948.5165600276233
 20
2272.163631036299
 30
0.0
 11
948.0165600276233
 21
2272.163631036299
 31
0.0
  0
LINE
  5
AE
  8
0
  6
CONTINUOUS
 62
     7
 10
948.3165600276095
 20
2297.955205193832
 30
0.0
 11
948.0165600276093
 21
2297.955205193832
 31
0.0
  0
LINE
  5
AF
  8
0
  6
CONTINUOUS
 62
     7
 10
948.5165600276096
 20
2297.955205193832
 30
0.0
 11
948.3165600276095
 21
2297.955205193832
 31
0.0
  0
LINE
  5
B0
  8
0
  6
CONTINUOUS
 62
     7
 10
948.0165600276093
 20
2297.955205193832
 30
0.0
 11
948.016560027608
 21
2288.51958917514
 31
0.0
  0
LINE
  5
B1
  8
0
  6
CONTINUOUS
 62
     7
 10
948.3165600276152
 20
2261.172056878333
 30
0.0
 11
948.5165600276152
 21
2261.172056878333
 31
0.0
  0
LINE
  5
B2
  8
0
  6
CONTINUOUS
 62
     7
 10
948.0165600276152
 20
2261.172056878333
 30
0.0
 11
948.3165600276152
 21
2261.172056878333
 31
0.0
  0
LINE
  5
B3
  8
0
  6
CONTINUOUS
 62
     7
 10
948.0165600276147
 20
2270.607672897012
 30
0.0
 11
948.0165600276152
 21
2261.172056878333
 31
0.0
  0
POLYLINE
  5
B4
  8
0
  6
CONTINUOUS
 62
     7
 10
0.0
 20
0.0
 30
0.0
 66
     1
 70
     8
  0
VERTEX
  5
1B3
  8
0
  6
CONTINUOUS
 62
     7
 10
946.5165600276097
 20
2308.063631036081
 30
0.0
 70
    32
  0
VERTEX
  5
1B4
  8
0
  6
CONTINUOUS
 62
     7
 10
946.533828852989
 20
2308.063631036081
 30
0.0
 70
    32
  0
VERTEX
  5
1B5
  8
0
  6
CONTINUOUS
 62
     7
 10
946.5512539364597
 20
2308.063631036081
 30
0.0
 70
    32
  0
VERTEX
  5
1B6
  8
0
  6
CONTINUOUS
 62
     7
 10
946.5689915361133
 20
2308.063631036082
 30
0.0
 70
    32
  0
VERTEX
  5
1B7
  8
0
  6
CONTINUOUS
 62
     7
 10
946.5871979100408
 20
2308.063631036082
 30
0.0
 70
    32
  0
VERTEX
  5
1B8
  8
0
  6
CONTINUOUS
 62
     7
 10
946.6060293163341
 20
2308.063631036082
 30
0.0
 70
    32
  0
VERTEX
  5
1B9
  8
0
  6
CONTINUOUS
 62
     7
 10
946.6256420130838
 20
2308.063631036082
 30
0.0
 70
    32
  0
VERTEX
  5
1BA
  8
0
  6
CONTINUOUS
 62
     7
 10
946.646192236373
 20
2308.063631036082
 30
0.0
 70
    32
  0
VERTEX
  5
1BB
  8
0
  6
CONTINUOUS
 62
     7
 10
946.6677900239914
 20
2308.063631036082
 30
0.0
 70
    32
  0
VERTEX
  5
1BC
  8
0
  6
CONTINUOUS
 62
     7
 10
946.6904018193126
 20
2308.063631036082
 30
0.0
 70
    32
  0
VERTEX
  5
1BD
  8
0
  6
CONTINUOUS
 62
     7
 10
946.7139662480936
 20
2308.063631036081
 30
0.0
 70
    32
  0
VERTEX
  5
1BE
  8
0
  6
CONTINUOUS
 62
     7
 10
946.7384219360944
 20
2308.063631036082
 30
0.0
 70
    32
  0
VERTEX
  5
1BF
  8
0
  6
CONTINUOUS
 62
     7
 10
946.7637075090726
 20
2308.063631036081
 30
0.0
 70
    32
  0
VERTEX
  5
1C0
  8
0
  6
CONTINUOUS
 62
     7
 10
946.7897615927876
 20
2308.063631036081
 30
0.0
 70
    32
  0
VERTEX
  5
1C1
  8
0
  6
CONTINUOUS
 62
     7
 10
946.8165228129977
 20
2308.063631036081
 30
0.0
 70
    32
  0
VERTEX
  5
1C2
  8
0
  6
CONTINUOUS
 62
     7
 10
946.8439297954617
 20
2308.063631036081
 30
0.0
 70
    32
  0
VERTEX
  5
1C3
  8
0
  6
CONTINUOUS
 62
     7
 10
946.8719211659381
 20
2308.063631036081
 30
0.0
 70
    32
  0
VERTEX
  5
1C4
  8
0
  6
CONTINUOUS
 62
     7
 10
946.900435550186
 20
2308.063631036081
 30
0.0
 70
    32
  0
VERTEX
  5
1C5
  8
0
  6
CONTINUOUS
 62
     7
 10
946.9294202010396
 20
2308.063631036081
 30
0.0
 70
    32
  0
VERTEX
  5
1C6
  8
0
  6
CONTINUOUS
 62
     7
 10
946.9588645099202
 20
2308.063631036081
 30
0.0
 70
    32
  0
VERTEX
  5
1C7
  8
0
  6
CONTINUOUS
 62
     7
 10
946.9887707143288
 20
2308.063631036081
 30
0.0
 70
    32
  0
VERTEX
  5
1C8
  8
0
  6
CONTINUOUS
 62
     7
 10
947.0191410548754
 20
2308.063631036081
 30
0.0
 70
    32
  0
VERTEX
  5
1C9
  8
0
  6
CONTINUOUS
 62
     7
 10
947.0499777721683
 20
2308.063631036081
 30
0.0
 70
    32
  0
VERTEX
  5
1CA
  8
0
  6
CONTINUOUS
 62
     7
 10
947.0812831068159
 20
2308.063631036081
 30
0.0
 70
    32
  0
VERTEX
  5
1CB
  8
0
  6
CONTINUOUS
 62
     7
 10
947.1130592994274
 20
2308.063631036081
 30
0.0
 70
    32
  0
VERTEX
  5
1CC
  8
0
  6
CONTINUOUS
 62
     7
 10
947.1453085906114
 20
2308.063631036082
 30
0.0
 70
    32
  0
VERTEX
  5
1CD
  8
0
  6
CONTINUOUS
 62
     7
 10
947.1780332209763
 20
2308.063631036082
 30
0.0
 70
    32
  0
VERTEX
  5
1CE
  8
0
  6
CONTINUOUS
 62
     7
 10
947.2112354311313
 20
2308.063631036081
 30
0.0
 70
    32
  0
VERTEX
  5
1CF
  8
0
  6
CONTINUOUS
 62
     7
 10
947.2449158699399
 20
2308.063631036081
 30
0.0
 70
    32
  0
VERTEX
  5
1D0
  8
0
  6
CONTINUOUS
 62
     7
 10
947.2790632632633
 20
2308.063631036082
 30
0.0
 70
    32
  0
VERTEX
  5
1D1
  8
0
  6
CONTINUOUS
 62
     7
 10
947.3136609301736
 20
2308.063631036081
 30
0.0
 70
    32
  0
VERTEX
  5
1D2
  8
0
  6
CONTINUOUS
 62
     7
 10
947.3486921628631
 20
2308.063631036081
 30
0.0
 70
    32
  0
VERTEX
  5
1D3
  8
0
  6
CONTINUOUS
 62
     7
 10
947.3841402535246
 20
2308.063631036081
 30
0.0
 70
    32
  0
VERTEX
  5
1D4
  8
0
  6
CONTINUOUS
 62
     7
 10
947.4199884943503
 20
2308.063631036081
 30
0.0
 70
    32
  0
VERTEX
  5
1D5
  8
0
  6
CONTINUOUS
 62
     7
 10
947.4562201775323
 20
2308.063631036082
 30
0.0
 70
    32
  0
VERTEX
  5
1D6
  8
0
  6
CONTINUOUS
 62
     7
 10
947.4928185952631
 20
2308.063631036081
 30
0.0
 70
    32
  0
VERTEX
  5
1D7
  8
0
  6
CONTINUOUS
 62
     7
 10
947.5297670397347
 20
2308.063631036081
 30
0.0
 70
    32
  0
VERTEX
  5
1D8
  8
0
  6
CONTINUOUS
 62
     7
 10
947.5670488031401
 20
2308.063631036081
 30
0.0
 70
    32
  0
VERTEX
  5
1D9
  8
0
  6
CONTINUOUS
 62
     7
 10
947.6046471796772
 20
2308.063631036082
 30
0.0
 70
    32
  0
VERTEX
  5
1DA
  8
0
  6
CONTINUOUS
 62
     7
 10
947.642545488819
 20
2308.063631036082
 30
0.0
 70
    32
  0
VERTEX
  5
1DB
  8
0
  6
CONTINUOUS
 62
     7
 10
947.6807270673262
 20
2308.063631036082
 30
0.0
 70
    32
  0
VERTEX
  5
1DC
  8
0
  6
CONTINUOUS
 62
     7
 10
947.719175252295
 20
2308.063631036082
 30
0.0
 70
    32
  0
VERTEX
  5
1DD
  8
0
  6
CONTINUOUS
 62
     7
 10
947.7578733808219
 20
2308.063631036082
 30
0.0
 70
    32
  0
VERTEX
  5
1DE
  8
0
  6
CONTINUOUS
 62
     7
 10
947.7968047900026
 20
2308.063631036083
 30
0.0
 70
    32
  0
VERTEX
  5
1DF
  8
0
  6
CONTINUOUS
 62
     7
 10
947.8359528169334
 20
2308.063631036083
 30
0.0
 70
    32
  0
VERTEX
  5
1E0
  8
0
  6
CONTINUOUS
 62
     7
 10
947.8753007987103
 20
2308.063631036083
 30
0.0
 70
    32
  0
VERTEX
  5
1E1
  8
0
  6
CONTINUOUS
 62
     7
 10
947.91483207243
 20
2308.063631036084
 30
0.0
 70
    32
  0
VERTEX
  5
1E2
  8
0
  6
CONTINUOUS
 62
     7
 10
947.9545299751879
 20
2308.063631036084
 30
0.0
 70
    32
  0
VERTEX
  5
1E3
  8
0
  6
CONTINUOUS
 62
     7
 10
947.9943778440808
 20
2308.063631036084
 30
0.0
 70
    32
  0
VERTEX
  5
1E4
  8
0
  6
CONTINUOUS
 62
     7
 10
948.0343590162042
 20
2308.063631036084
 30
0.0
 70
    32
  0
VERTEX
  5
1E5
  8
0
  6
CONTINUOUS
 62
     7
 10
948.0744568286548
 20
2308.063631036085
 30
0.0
 70
    32
  0
VERTEX
  5
1E6
  8
0
  6
CONTINUOUS
 62
     7
 10
948.1146546185286
 20
2308.063631036085
 30
0.0
 70
    32
  0
VERTEX
  5
1E7
  8
0
  6
CONTINUOUS
 62
     7
 10
948.1549357229217
 20
2308.063631036086
 30
0.0
 70
    32
  0
VERTEX
  5
1E8
  8
0
  6
CONTINUOUS
 62
     7
 10
948.1952834789298
 20
2308.063631036086
 30
0.0
 70
    32
  0
VERTEX
  5
1E9
  8
0
  6
CONTINUOUS
 62
     7
 10
948.2356812236499
 20
2308.063631036086
 30
0.0
 70
    32
  0
VERTEX
  5
1EA
  8
0
  6
CONTINUOUS
 62
     7
 10
948.2761122941774
 20
2308.063631036087
 30
0.0
 70
    32
  0
VERTEX
  5
1EB
  8
0
  6
CONTINUOUS
 62
     7
 10
948.3165600276088
 20
2308.063631036087
 30
0.0
 70
    32
  0
SEQEND
  5
54D
  8
0
  6
CONTINUOUS
 62
     7
  0
LINE
  5
B5
  8
0
  6
CONTINUOUS
 62
     7
 10
948.3165600276091
 20
2307.063631036088
 30
0.0
 11
948.3165600276088
 21
2308.063631036087
 31
0.0
  0
POLYLINE
  5
B6
  8
0
  6
CONTINUOUS
 62
     7
 10
0.0
 20
0.0
 30
0.0
 66
     1
 70
     8
  0
VERTEX
  5
1EC
  8
0
  6
CONTINUOUS
 62
     7
 10
948.3165600276325
 20
2251.063631036084
 30
0.0
 70
    32
  0
VERTEX
  5
1ED
  8
0
  6
CONTINUOUS
 62
     7
 10
948.2761115489352
 20
2251.063631036085
 30
0.0
 70
    32
  0
VERTEX
  5
1EE
  8
0
  6
CONTINUOUS
 62
     7
 10
948.2356797366326
 20
2251.063631036084
 30
0.0
 70
    32
  0
VERTEX
  5
1EF
  8
0
  6
CONTINUOUS
 62
     7
 10
948.1952812571196
 20
2251.063631036084
 30
0.0
 70
    32
  0
VERTEX
  5
1F0
  8
0
  6
CONTINUOUS
 62
     7
 10
948.1549327767915
 20
2251.063631036085
 30
0.0
 70
    32
  0
VERTEX
  5
1F1
  8
0
  6
CONTINUOUS
 62
     7
 10
948.1146509620421
 20
2251.063631036085
 30
0.0
 70
    32
  0
VERTEX
  5
1F2
  8
0
  6
CONTINUOUS
 62
     7
 10
948.0744524792669
 20
2251.063631036084
 30
0.0
 70
    32
  0
VERTEX
  5
1F3
  8
0
  6
CONTINUOUS
 62
     7
 10
948.0343539948607
 20
2251.063631036084
 30
0.0
 70
    32
  0
VERTEX
  5
1F4
  8
0
  6
CONTINUOUS
 62
     7
 10
947.994372175218
 20
2251.063631036084
 30
0.0
 70
    32
  0
VERTEX
  5
1F5
  8
0
  6
CONTINUOUS
 62
     7
 10
947.9545236867343
 20
2251.063631036084
 30
0.0
 70
    32
  0
VERTEX
  5
1F6
  8
0
  6
CONTINUOUS
 62
     7
 10
947.9148251958039
 20
2251.063631036085
 30
0.0
 70
    32
  0
VERTEX
  5
1F7
  8
0
  6
CONTINUOUS
 62
     7
 10
947.8752933688214
 20
2251.063631036085
 30
0.0
 70
    32
  0
VERTEX
  5
1F8
  8
0
  6
CONTINUOUS
 62
     7
 10
947.8359448721818
 20
2251.063631036085
 30
0.0
 70
    32
  0
VERTEX
  5
1F9
  8
0
  6
CONTINUOUS
 62
     7
 10
947.7967963722801
 20
2251.063631036085
 30
0.0
 70
    32
  0
VERTEX
  5
1FA
  8
0
  6
CONTINUOUS
 62
     7
 10
947.7578645355107
 20
2251.063631036084
 30
0.0
 70
    32
  0
VERTEX
  5
1FB
  8
0
  6
CONTINUOUS
 62
     7
 10
947.7191660282691
 20
2251.063631036085
 30
0.0
 70
    32
  0
VERTEX
  5
1FC
  8
0
  6
CONTINUOUS
 62
     7
 10
947.6807175169496
 20
2251.063631036084
 30
0.0
 70
    32
  0
VERTEX
  5
1FD
  8
0
  6
CONTINUOUS
 62
     7
 10
947.6425356679472
 20
2251.063631036084
 30
0.0
 70
    32
  0
VERTEX
  5
1FE
  8
0
  6
CONTINUOUS
 62
     7
 10
947.6046371476566
 20
2251.063631036085
 30
0.0
 70
    32
  0
VERTEX
  5
1FF
  8
0
  6
CONTINUOUS
 62
     7
 10
947.567038622715
 20
2251.063631036084
 30
0.0
 70
    32
  0
VERTEX
  5
200
  8
0
  6
CONTINUOUS
 62
     7
 10
947.5297567722207
 20
2251.063631036084
 30
0.0
 70
    32
  0
VERTEX
  5
201
  8
0
  6
CONTINUOUS
 62
     7
 10
947.4928082934783
 20
2251.063631036084
 30
0.0
 70
    32
  0
VERTEX
  5
202
  8
0
  6
CONTINUOUS
 62
     7
 10
947.4562098852358
 20
2251.063631036084
 30
0.0
 70
    32
  0
VERTEX
  5
203
  8
0
  6
CONTINUOUS
 62
     7
 10
947.4199782462409
 20
2251.063631036084
 30
0.0
 70
    32
  0
VERTEX
  5
204
  8
0
  6
CONTINUOUS
 62
     7
 10
947.3841300752416
 20
2251.063631036084
 30
0.0
 70
    32
  0
VERTEX
  5
205
  8
0
  6
CONTINUOUS
 62
     7
 10
947.3486820709861
 20
2251.063631036085
 30
0.0
 70
    32
  0
VERTEX
  5
206
  8
0
  6
CONTINUOUS
 62
     7
 10
947.3136509322215
 20
2251.063631036084
 30
0.0
 70
    32
  0
VERTEX
  5
207
  8
0
  6
CONTINUOUS
 62
     7
 10
947.2790533576966
 20
2251.063631036084
 30
0.0
 70
    32
  0
VERTEX
  5
208
  8
0
  6
CONTINUOUS
 62
     7
 10
947.244906046159
 20
2251.063631036084
 30
0.0
 70
    32
  0
VERTEX
  5
209
  8
0
  6
CONTINUOUS
 62
     7
 10
947.2112256637607
 20
2251.063631036085
 30
0.0
 70
    32
  0
VERTEX
  5
20A
  8
0
  6
CONTINUOUS
 62
     7
 10
947.1780233172174
 20
2251.063631036085
 30
0.0
 70
    32
  0
VERTEX
  5
20B
  8
0
  6
CONTINUOUS
 62
     7
 10
947.1452983150596
 20
2251.063631036084
 30
0.0
 70
    32
  0
VERTEX
  5
20C
  8
0
  6
CONTINUOUS
 62
     7
 10
947.113048459282
 20
2251.063631036085
 30
0.0
 70
    32
  0
VERTEX
  5
20D
  8
0
  6
CONTINUOUS
 62
     7
 10
947.0812715518781
 20
2251.063631036085
 30
0.0
 70
    32
  0
VERTEX
  5
20E
  8
0
  6
CONTINUOUS
 62
     7
 10
947.0499653948419
 20
2251.063631036085
 30
0.0
 70
    32
  0
VERTEX
  5
20F
  8
0
  6
CONTINUOUS
 62
     7
 10
947.0191277901674
 20
2251.063631036084
 30
0.0
 70
    32
  0
VERTEX
  5
210
  8
0
  6
CONTINUOUS
 62
     7
 10
946.9887565398487
 20
2251.063631036085
 30
0.0
 70
    32
  0
VERTEX
  5
211
  8
0
  6
CONTINUOUS
 62
     7
 10
946.9588494458795
 20
2251.063631036085
 30
0.0
 70
    32
  0
VERTEX
  5
212
  8
0
  6
CONTINUOUS
 62
     7
 10
946.9294043102541
 20
2251.063631036085
 30
0.0
 70
    32
  0
VERTEX
  5
213
  8
0
  6
CONTINUOUS
 62
     7
 10
946.9004189381559
 20
2251.063631036085
 30
0.0
 70
    32
  0
VERTEX
  5
214
  8
0
  6
CONTINUOUS
 62
     7
 10
946.8719040078366
 20
2251.063631036085
 30
0.0
 70
    32
  0
VERTEX
  5
215
  8
0
  6
CONTINUOUS
 62
     7
 10
946.8439123527194
 20
2251.063631036085
 30
0.0
 70
    32
  0
VERTEX
  5
216
  8
0
  6
CONTINUOUS
 62
     7
 10
946.8165054216959
 20
2251.063631036085
 30
0.0
 70
    32
  0
VERTEX
  5
217
  8
0
  6
CONTINUOUS
 62
     7
 10
946.7897446636572
 20
2251.063631036085
 30
0.0
 70
    32
  0
VERTEX
  5
218
  8
0
  6
CONTINUOUS
 62
     7
 10
946.7636915274946
 20
2251.063631036085
 30
0.0
 70
    32
  0
VERTEX
  5
219
  8
0
  6
CONTINUOUS
 62
     7
 10
946.7384074620993
 20
2251.063631036085
 30
0.0
 70
    32
  0
VERTEX
  5
21A
  8
0
  6
CONTINUOUS
 62
     7
 10
946.713953916363
 20
2251.063631036085
 30
0.0
 70
    32
  0
VERTEX
  5
21B
  8
0
  6
CONTINUOUS
 62
     7
 10
946.6903923391768
 20
2251.063631036085
 30
0.0
 70
    32
  0
VERTEX
  5
21C
  8
0
  6
CONTINUOUS
 62
     7
 10
946.667784179432
 20
2251.063631036085
 30
0.0
 70
    32
  0
VERTEX
  5
21D
  8
0
  6
CONTINUOUS
 62
     7
 10
946.6461908860199
 20
2251.063631036084
 30
0.0
 70
    32
  0
VERTEX
  5
21E
  8
0
  6
CONTINUOUS
 62
     7
 10
946.6256448209712
 20
2251.063631036085
 30
0.0
 70
    32
  0
VERTEX
  5
21F
  8
0
  6
CONTINUOUS
 62
     7
 10
946.6060344578982
 20
2251.063631036084
 30
0.0
 70
    32
  0
VERTEX
  5
220
  8
0
  6
CONTINUOUS
 62
     7
 10
946.587203857105
 20
2251.063631036084
 30
0.0
 70
    32
  0
VERTEX
  5
221
  8
0
  6
CONTINUOUS
 62
     7
 10
946.5689970661354
 20
2251.063631036084
 30
0.0
 70
    32
  0
VERTEX
  5
222
  8
0
  6
CONTINUOUS
 62
     7
 10
946.5512581325331
 20
2251.063631036084
 30
0.0
 70
    32
  0
VERTEX
  5
223
  8
0
  6
CONTINUOUS
 62
     7
 10
946.5338311038431
 20
2251.063631036084
 30
0.0
 70
    32
  0
VERTEX
  5
224
  8
0
  6
CONTINUOUS
 62
     7
 10
946.5165600276085
 20
2251.063631036084
 30
0.0
 70
    32
  0
SEQEND
  5
54E
  8
0
  6
CONTINUOUS
 62
     7
  0
LINE
  5
B7
  8
0
  6
CONTINUOUS
 62
     7
 10
948.3165600276183
 20
2252.063631036083
 30
0.0
 11
948.3165600276325
 21
2251.063631036084
 31
0.0
  0
POLYLINE
  5
B8
  8
0
  6
CONTINUOUS
 62
     7
 66
     1
 10
0.0
 20
0.0
 30
0.0
  0
VERTEX
  5
225
  8
0
  6
CONTINUOUS
 62
     7
 10
946.5165600276083
 20
2289.809395376265
 30
0.0
  0
VERTEX
  5
226
  8
0
  6
CONTINUOUS
 62
     7
 10
946.5279712126282
 20
2289.795886967076
 30
0.0
  0
VERTEX
  5
227
  8
0
  6
CONTINUOUS
 62
     7
 10
946.5396973060275
 20
2289.782740312969
 30
0.0
  0
VERTEX
  5
228
  8
0
  6
CONTINUOUS
 62
     7
 10
946.5518859311559
 20
2289.770129871818
 30
0.0
  0
VERTEX
  5
229
  8
0
  6
CONTINUOUS
 62
     7
 10
946.5645237422278
 20
2289.758049875737
 30
0.0
  0
VERTEX
  5
22A
  8
0
  6
CONTINUOUS
 62
     7
 10
946.5775908699326
 20
2289.746487252916
 30
0.0
  0
VERTEX
  5
22B
  8
0
  6
CONTINUOUS
 62
     7
 10
946.5910674449589
 20
2289.735428931543
 30
0.0
  0
VERTEX
  5
22C
  8
0
  6
CONTINUOUS
 62
     7
 10
946.6049335979959
 20
2289.724861839806
 30
0.0
  0
VERTEX
  5
22D
  8
0
  6
CONTINUOUS
 62
     7
 10
946.6191694597323
 20
2289.714772905892
 30
0.0
  0
VERTEX
  5
22E
  8
0
  6
CONTINUOUS
 62
     7
 10
946.6337551608573
 20
2289.705149057987
 30
0.0
  0
VERTEX
  5
22F
  8
0
  6
CONTINUOUS
 62
     7
 10
946.6486708320602
 20
2289.695977224281
 30
0.0
  0
VERTEX
  5
230
  8
0
  6
CONTINUOUS
 62
     7
 10
946.6638966040297
 20
2289.687244332962
 30
0.0
  0
VERTEX
  5
231
  8
0
  6
CONTINUOUS
 62
     7
 10
946.6794126074545
 20
2289.678937312217
 30
0.0
  0
VERTEX
  5
232
  8
0
  6
CONTINUOUS
 62
     7
 10
946.6951989730239
 20
2289.671043090234
 30
0.0
  0
VERTEX
  5
233
  8
0
  6
CONTINUOUS
 62
     7
 10
946.7112358314272
 20
2289.663548595201
 30
0.0
  0
VERTEX
  5
234
  8
0
  6
CONTINUOUS
 62
     7
 10
946.727503313353
 20
2289.656440755304
 30
0.0
  0
VERTEX
  5
235
  8
0
  6
CONTINUOUS
 62
     7
 10
946.7439815494903
 20
2289.649706498733
 30
0.0
  0
VERTEX
  5
236
  8
0
  6
CONTINUOUS
 62
     7
 10
946.7606506705283
 20
2289.643332753676
 30
0.0
  0
VERTEX
  5
237
  8
0
  6
CONTINUOUS
 62
     7
 10
946.7774908071557
 20
2289.637306448319
 30
0.0
  0
VERTEX
  5
238
  8
0
  6
CONTINUOUS
 62
     7
 10
946.7944820900619
 20
2289.63161451085
 30
0.0
  0
VERTEX
  5
239
  8
0
  6
CONTINUOUS
 62
     7
 10
946.8116046499354
 20
2289.626243869458
 30
0.0
  0
VERTEX
  5
23A
  8
0
  6
CONTINUOUS
 62
     7
 10
946.8288386174656
 20
2289.621181452329
 30
0.0
  0
VERTEX
  5
23B
  8
0
  6
CONTINUOUS
 62
     7
 10
946.8461641237454
 20
2289.616414187587
 30
0.0
  0
VERTEX
  5
23C
  8
0
  6
CONTINUOUS
 62
     7
 10
946.8635643850549
 20
2289.611928498595
 30
0.0
  0
VERTEX
  5
23D
  8
0
  6
CONTINUOUS
 62
     7
 10
946.8810331339864
 20
2289.607709088178
 30
0.0
  0
VERTEX
  5
23E
  8
0
  6
CONTINUOUS
 62
     7
 10
946.8985663418559
 20
2289.603740292889
 30
0.0
  0
VERTEX
  5
23F
  8
0
  6
CONTINUOUS
 62
     7
 10
946.9161599799806
 20
2289.600006449285
 30
0.0
  0
VERTEX
  5
240
  8
0
  6
CONTINUOUS
 62
     7
 10
946.9338100196761
 20
2289.596491893918
 30
0.0
  0
VERTEX
  5
241
  8
0
  6
CONTINUOUS
 62
     7
 10
946.9515124322593
 20
2289.593180963344
 30
0.0
  0
VERTEX
  5
242
  8
0
  6
CONTINUOUS
 62
     7
 10
946.9692631890457
 20
2289.590057994117
 30
0.0
  0
VERTEX
  5
243
  8
0
  6
CONTINUOUS
 62
     7
 10
946.9870582613526
 20
2289.587107322791
 30
0.0
  0
VERTEX
  5
244
  8
0
  6
CONTINUOUS
 62
     7
 10
947.0048936204957
 20
2289.584313285921
 30
0.0
  0
VERTEX
  5
245
  8
0
  6
CONTINUOUS
 62
     7
 10
947.0227652377919
 20
2289.581660220061
 30
0.0
  0
VERTEX
  5
246
  8
0
  6
CONTINUOUS
 62
     7
 10
947.040669084557
 20
2289.579132461766
 30
0.0
  0
VERTEX
  5
247
  8
0
  6
CONTINUOUS
 62
     7
 10
947.0586011321078
 20
2289.57671434759
 30
0.0
  0
VERTEX
  5
248
  8
0
  6
CONTINUOUS
 62
     7
 10
947.0765573517606
 20
2289.574390214087
 30
0.0
  0
VERTEX
  5
249
  8
0
  6
CONTINUOUS
 62
     7
 10
947.0945337148312
 20
2289.572144397812
 30
0.0
  0
VERTEX
  5
24A
  8
0
  6
CONTINUOUS
 62
     7
 10
947.1125261926368
 20
2289.56996123532
 30
0.0
  0
VERTEX
  5
24B
  8
0
  6
CONTINUOUS
 62
     7
 10
947.1305307564933
 20
2289.567825063164
 30
0.0
  0
VERTEX
  5
24C
  8
0
  6
CONTINUOUS
 62
     7
 10
947.1485433777167
 20
2289.5657202179
 30
0.0
  0
VERTEX
  5
24D
  8
0
  6
CONTINUOUS
 62
     7
 10
947.1665600276242
 20
2289.563631036081
 30
0.0
  0
SEQEND
  5
54F
  8
0
  6
CONTINUOUS
 62
     7
  0
LINE
  5
B9
  8
0
  6
CONTINUOUS
 62
     7
 10
948.3165600276091
 20
2307.063631036088
 30
0.0
 11
948.3165600276095
 21
2297.955205193832
 31
0.0
  0
LINE
  5
BA
  8
0
  6
CONTINUOUS
 62
     7
 10
948.0165600276177
 20
2289.56363103608
 30
0.0
 11
947.1665600276241
 21
2289.56363103608
 31
0.0
  0
LINE
  5
BB
  8
0
  6
CONTINUOUS
 62
     7
 10
948.516560027609
 20
2307.063631036088
 30
0.0
 11
948.3165600276091
 21
2307.063631036088
 31
0.0
  0
LINE
  5
BC
  8
0
  6
CONTINUOUS
 62
     7
 10
948.5165600276182
 20
2252.063631036083
 30
0.0
 11
948.3165600276183
 21
2252.063631036083
 31
0.0
  0
LINE
  5
BD
  8
0
  6
CONTINUOUS
 62
     7
 10
948.3165600276152
 20
2261.172056878333
 30
0.0
 11
948.3165600276183
 21
2252.063631036083
 31
0.0
  0
POLYLINE
  5
BE
  8
0
  6
CONTINUOUS
 62
     7
 66
     1
 10
0.0
 20
0.0
 30
0.0
  0
VERTEX
  5
24E
  8
0
  6
CONTINUOUS
 62
     7
 10
947.1665600276132
 20
2269.56363103608
 30
0.0
  0
VERTEX
  5
24F
  8
0
  6
CONTINUOUS
 62
     7
 10
947.1436745689828
 20
2269.561355713088
 30
0.0
  0
VERTEX
  5
250
  8
0
  6
CONTINUOUS
 62
     7
 10
947.1208091047819
 20
2269.559039462614
 30
0.0
  0
VERTEX
  5
251
  8
0
  6
CONTINUOUS
 62
     7
 10
947.0979836294401
 20
2269.556641357175
 30
0.0
  0
VERTEX
  5
252
  8
0
  6
CONTINUOUS
 62
     7
 10
947.0752181373867
 20
2269.554120469289
 30
0.0
  0
VERTEX
  5
253
  8
0
  6
CONTINUOUS
 62
     7
 10
947.0525326230517
 20
2269.551435871474
 30
0.0
  0
VERTEX
  5
254
  8
0
  6
CONTINUOUS
 62
     7
 10
947.0299470808635
 20
2269.548546636247
 30
0.0
  0
VERTEX
  5
255
  8
0
  6
CONTINUOUS
 62
     7
 10
947.007481505253
 20
2269.545411836127
 30
0.0
  0
VERTEX
  5
256
  8
0
  6
CONTINUOUS
 62
     7
 10
946.9851558906489
 20
2269.54199054363
 30
0.0
  0
VERTEX
  5
257
  8
0
  6
CONTINUOUS
 62
     7
 10
946.9629902314807
 20
2269.538241831275
 30
0.0
  0
VERTEX
  5
258
  8
0
  6
CONTINUOUS
 62
     7
 10
946.9410045221784
 20
2269.534124771579
 30
0.0
  0
VERTEX
  5
259
  8
0
  6
CONTINUOUS
 62
     7
 10
946.9192187571706
 20
2269.52959843706
 30
0.0
  0
VERTEX
  5
25A
  8
0
  6
CONTINUOUS
 62
     7
 10
946.8976529308878
 20
2269.524621900235
 30
0.0
  0
VERTEX
  5
25B
  8
0
  6
CONTINUOUS
 62
     7
 10
946.8763270377591
 20
2269.519154233623
 30
0.0
  0
VERTEX
  5
25C
  8
0
  6
CONTINUOUS
 62
     7
 10
946.855261072214
 20
2269.513154509742
 30
0.0
  0
VERTEX
  5
25D
  8
0
  6
CONTINUOUS
 62
     7
 10
946.8344750286819
 20
2269.506581801107
 30
0.0
  0
VERTEX
  5
25E
  8
0
  6
CONTINUOUS
 62
     7
 10
946.8139889015924
 20
2269.499395180238
 30
0.0
  0
VERTEX
  5
25F
  8
0
  6
CONTINUOUS
 62
     7
 10
946.7938186988536
 20
2269.491561879839
 30
0.0
  0
VERTEX
  5
260
  8
0
  6
CONTINUOUS
 62
     7
 10
946.773954453713
 20
2269.483102301298
 30
0.0
  0
VERTEX
  5
261
  8
0
  6
CONTINUOUS
 62
     7
 10
946.7543757948602
 20
2269.474058143549
 30
0.0
  0
VERTEX
  5
262
  8
0
  6
CONTINUOUS
 62
     7
 10
946.7350623232744
 20
2269.46447116225
 30
0.0
  0
VERTEX
  5
263
  8
0
  6
CONTINUOUS
 62
     7
 10
946.7159936399356
 20
2269.454383113061
 30
0.0
  0
VERTEX
  5
264
  8
0
  6
CONTINUOUS
 62
     7
 10
946.6971493458229
 20
2269.443835751638
 30
0.0
  0
VERTEX
  5
265
  8
0
  6
CONTINUOUS
 62
     7
 10
946.6785090419156
 20
2269.432870833638
 30
0.0
  0
VERTEX
  5
266
  8
0
  6
CONTINUOUS
 62
     7
 10
946.6600523291934
 20
2269.421530114721
 30
0.0
  0
VERTEX
  5
267
  8
0
  6
CONTINUOUS
 62
     7
 10
946.6417588086354
 20
2269.409855350541
 30
0.0
  0
VERTEX
  5
268
  8
0
  6
CONTINUOUS
 62
     7
 10
946.6236080812213
 20
2269.397888296759
 30
0.0
  0
VERTEX
  5
269
  8
0
  6
CONTINUOUS
 62
     7
 10
946.6055797479307
 20
2269.385670709031
 30
0.0
  0
VERTEX
  5
26A
  8
0
  6
CONTINUOUS
 62
     7
 10
946.5876534097431
 20
2269.373244343015
 30
0.0
  0
VERTEX
  5
26B
  8
0
  6
CONTINUOUS
 62
     7
 10
946.5698086676375
 20
2269.360650954368
 30
0.0
  0
VERTEX
  5
26C
  8
0
  6
CONTINUOUS
 62
     7
 10
946.5520251225935
 20
2269.347932298749
 30
0.0
  0
VERTEX
  5
26D
  8
0
  6
CONTINUOUS
 62
     7
 10
946.5342823755906
 20
2269.335130131814
 30
0.0
  0
VERTEX
  5
26E
  8
0
  6
CONTINUOUS
 62
     7
 10
946.5165600276083
 20
2269.322286209222
 30
0.0
  0
SEQEND
  5
550
  8
0
  6
CONTINUOUS
 62
     7
  0
LINE
  5
BF
  8
0
  6
CONTINUOUS
 62
     7
 10
947.1665600276132
 20
2269.56363103608
 30
0.0
 11
948.0165600276177
 21
2269.563631036083
 31
0.0
  0
LINE
  5
C0
  8
0
  6
CONTINUOUS
 62
     7
 10
948.5165600276088
 20
2308.063631036087
 30
0.0
 11
948.3165600276088
 21
2308.063631036087
 31
0.0
  0
LINE
  5
C1
  8
0
  6
CONTINUOUS
 62
     7
 10
948.5165600276324
 20
2251.063631036084
 30
0.0
 11
948.3165600276325
 21
2251.063631036084
 31
0.0
  0
LINE
  5
C2
  8
0
  6
CONTINUOUS
 62
     7
 10
948.016560027608
 20
1522.51958917514
 30
0.0
 11
948.5165600276097
 21
1522.51958917514
 31
0.0
  0
LINE
  5
C3
  8
0
  6
CONTINUOUS
 62
     7
 10
948.0165600276076
 20
1520.963631035848
 30
0.0
 11
948.5165600276075
 21
1520.963631035848
 31
0.0
  0
LINE
  5
C4
  8
0
  6
CONTINUOUS
 62
     7
 10
948.0165600276076
 20
1520.963631035848
 30
0.0
 11
948.016560027608
 21
1522.51958917514
 31
0.0
  0
LINE
  5
C5
  8
0
  6
CONTINUOUS
 62
     7
 10
948.5165600276097
 20
1504.607672897011
 30
0.0
 11
948.0165600276147
 21
1504.607672897012
 31
0.0
  0
LINE
  5
C6
  8
0
  6
CONTINUOUS
 62
     7
 10
948.0165600276147
 20
1504.607672897012
 30
0.0
 11
948.0165600276233
 21
1506.163631036299
 31
0.0
  0
LINE
  5
C7
  8
0
  6
CONTINUOUS
 62
     7
 10
948.5165600276233
 20
1506.163631036299
 30
0.0
 11
948.0165600276233
 21
1506.163631036299
 31
0.0
  0
LINE
  5
C8
  8
0
  6
CONTINUOUS
 62
     7
 10
948.3165600276095
 20
1531.955205193832
 30
0.0
 11
948.0165600276093
 21
1531.955205193832
 31
0.0
  0
LINE
  5
C9
  8
0
  6
CONTINUOUS
 62
     7
 10
948.5165600276096
 20
1531.955205193832
 30
0.0
 11
948.3165600276095
 21
1531.955205193832
 31
0.0
  0
LINE
  5
CA
  8
0
  6
CONTINUOUS
 62
     7
 10
948.0165600276093
 20
1531.955205193832
 30
0.0
 11
948.016560027608
 21
1522.51958917514
 31
0.0
  0
LINE
  5
CB
  8
0
  6
CONTINUOUS
 62
     7
 10
948.3165600276152
 20
1495.172056878333
 30
0.0
 11
948.5165600276152
 21
1495.172056878333
 31
0.0
  0
LINE
  5
CC
  8
0
  6
CONTINUOUS
 62
     7
 10
948.0165600276152
 20
1495.172056878333
 30
0.0
 11
948.3165600276152
 21
1495.172056878333
 31
0.0
  0
LINE
  5
CD
  8
0
  6
CONTINUOUS
 62
     7
 10
948.0165600276147
 20
1504.607672897012
 30
0.0
 11
948.0165600276152
 21
1495.172056878333
 31
0.0
  0
POLYLINE
  5
CE
  8
0
  6
CONTINUOUS
 62
     7
 10
0.0
 20
0.0
 30
0.0
 66
     1
 70
     8
  0
VERTEX
  5
26F
  8
0
  6
CONTINUOUS
 62
     7
 10
946.5165600276085
 20
1542.063631036082
 30
0.0
 70
    32
  0
VERTEX
  5
270
  8
0
  6
CONTINUOUS
 62
     7
 10
946.5338288529878
 20
1542.063631036081
 30
0.0
 70
    32
  0
VERTEX
  5
271
  8
0
  6
CONTINUOUS
 62
     7
 10
946.5512539364589
 20
1542.063631036082
 30
0.0
 70
    32
  0
VERTEX
  5
272
  8
0
  6
CONTINUOUS
 62
     7
 10
946.5689915361122
 20
1542.063631036082
 30
0.0
 70
    32
  0
VERTEX
  5
273
  8
0
  6
CONTINUOUS
 62
     7
 10
946.5871979100397
 20
1542.063631036081
 30
0.0
 70
    32
  0
VERTEX
  5
274
  8
0
  6
CONTINUOUS
 62
     7
 10
946.6060293163329
 20
1542.063631036082
 30
0.0
 70
    32
  0
VERTEX
  5
275
  8
0
  6
CONTINUOUS
 62
     7
 10
946.6256420130827
 20
1542.063631036082
 30
0.0
 70
    32
  0
VERTEX
  5
276
  8
0
  6
CONTINUOUS
 62
     7
 10
946.6461922363713
 20
1542.063631036082
 30
0.0
 70
    32
  0
VERTEX
  5
277
  8
0
  6
CONTINUOUS
 62
     7
 10
946.6677900239906
 20
1542.063631036082
 30
0.0
 70
    32
  0
VERTEX
  5
278
  8
0
  6
CONTINUOUS
 62
     7
 10
946.6904018193111
 20
1542.063631036082
 30
0.0
 70
    32
  0
VERTEX
  5
279
  8
0
  6
CONTINUOUS
 62
     7
 10
946.7139662480922
 20
1542.063631036081
 30
0.0
 70
    32
  0
VERTEX
  5
27A
  8
0
  6
CONTINUOUS
 62
     7
 10
946.7384219360929
 20
1542.063631036082
 30
0.0
 70
    32
  0
VERTEX
  5
27B
  8
0
  6
CONTINUOUS
 62
     7
 10
946.7637075090713
 20
1542.063631036081
 30
0.0
 70
    32
  0
VERTEX
  5
27C
  8
0
  6
CONTINUOUS
 62
     7
 10
946.7897615927861
 20
1542.063631036081
 30
0.0
 70
    32
  0
VERTEX
  5
27D
  8
0
  6
CONTINUOUS
 62
     7
 10
946.8165228129961
 20
1542.063631036081
 30
0.0
 70
    32
  0
VERTEX
  5
27E
  8
0
  6
CONTINUOUS
 62
     7
 10
946.8439297954606
 20
1542.063631036082
 30
0.0
 70
    32
  0
VERTEX
  5
27F
  8
0
  6
CONTINUOUS
 62
     7
 10
946.871921165937
 20
1542.063631036082
 30
0.0
 70
    32
  0
VERTEX
  5
280
  8
0
  6
CONTINUOUS
 62
     7
 10
946.900435550185
 20
1542.063631036082
 30
0.0
 70
    32
  0
VERTEX
  5
281
  8
0
  6
CONTINUOUS
 62
     7
 10
946.9294202010385
 20
1542.063631036082
 30
0.0
 70
    32
  0
VERTEX
  5
282
  8
0
  6
CONTINUOUS
 62
     7
 10
946.958864509919
 20
1542.063631036082
 30
0.0
 70
    32
  0
VERTEX
  5
283
  8
0
  6
CONTINUOUS
 62
     7
 10
946.9887707143279
 20
1542.063631036082
 30
0.0
 70
    32
  0
VERTEX
  5
284
  8
0
  6
CONTINUOUS
 62
     7
 10
947.0191410548742
 20
1542.063631036081
 30
0.0
 70
    32
  0
VERTEX
  5
285
  8
0
  6
CONTINUOUS
 62
     7
 10
947.049977772167
 20
1542.063631036082
 30
0.0
 70
    32
  0
VERTEX
  5
286
  8
0
  6
CONTINUOUS
 62
     7
 10
947.0812831068148
 20
1542.063631036082
 30
0.0
 70
    32
  0
VERTEX
  5
287
  8
0
  6
CONTINUOUS
 62
     7
 10
947.1130592994263
 20
1542.063631036081
 30
0.0
 70
    32
  0
VERTEX
  5
288
  8
0
  6
CONTINUOUS
 62
     7
 10
947.14530859061
 20
1542.063631036081
 30
0.0
 70
    32
  0
VERTEX
  5
289
  8
0
  6
CONTINUOUS
 62
     7
 10
947.1780332209753
 20
1542.063631036082
 30
0.0
 70
    32
  0
VERTEX
  5
28A
  8
0
  6
CONTINUOUS
 62
     7
 10
947.2112354311303
 20
1542.063631036082
 30
0.0
 70
    32
  0
VERTEX
  5
28B
  8
0
  6
CONTINUOUS
 62
     7
 10
947.2449158699388
 20
1542.063631036081
 30
0.0
 70
    32
  0
VERTEX
  5
28C
  8
0
  6
CONTINUOUS
 62
     7
 10
947.2790632632623
 20
1542.063631036082
 30
0.0
 70
    32
  0
VERTEX
  5
28D
  8
0
  6
CONTINUOUS
 62
     7
 10
947.3136609301725
 20
1542.063631036082
 30
0.0
 70
    32
  0
VERTEX
  5
28E
  8
0
  6
CONTINUOUS
 62
     7
 10
947.3486921628621
 20
1542.063631036081
 30
0.0
 70
    32
  0
VERTEX
  5
28F
  8
0
  6
CONTINUOUS
 62
     7
 10
947.3841402535237
 20
1542.063631036081
 30
0.0
 70
    32
  0
VERTEX
  5
290
  8
0
  6
CONTINUOUS
 62
     7
 10
947.4199884943496
 20
1542.063631036082
 30
0.0
 70
    32
  0
VERTEX
  5
291
  8
0
  6
CONTINUOUS
 62
     7
 10
947.4562201775312
 20
1542.063631036081
 30
0.0
 70
    32
  0
VERTEX
  5
292
  8
0
  6
CONTINUOUS
 62
     7
 10
947.4928185952621
 20
1542.063631036081
 30
0.0
 70
    32
  0
VERTEX
  5
293
  8
0
  6
CONTINUOUS
 62
     7
 10
947.529767039734
 20
1542.063631036082
 30
0.0
 70
    32
  0
VERTEX
  5
294
  8
0
  6
CONTINUOUS
 62
     7
 10
947.5670488031393
 20
1542.063631036081
 30
0.0
 70
    32
  0
VERTEX
  5
295
  8
0
  6
CONTINUOUS
 62
     7
 10
947.604647179676
 20
1542.063631036081
 30
0.0
 70
    32
  0
VERTEX
  5
296
  8
0
  6
CONTINUOUS
 62
     7
 10
947.6425454888181
 20
1542.063631036082
 30
0.0
 70
    32
  0
VERTEX
  5
297
  8
0
  6
CONTINUOUS
 62
     7
 10
947.6807270673254
 20
1542.063631036082
 30
0.0
 70
    32
  0
VERTEX
  5
298
  8
0
  6
CONTINUOUS
 62
     7
 10
947.7191752522945
 20
1542.063631036082
 30
0.0
 70
    32
  0
VERTEX
  5
299
  8
0
  6
CONTINUOUS
 62
     7
 10
947.7578733808211
 20
1542.063631036082
 30
0.0
 70
    32
  0
VERTEX
  5
29A
  8
0
  6
CONTINUOUS
 62
     7
 10
947.7968047900019
 20
1542.063631036082
 30
0.0
 70
    32
  0
VERTEX
  5
29B
  8
0
  6
CONTINUOUS
 62
     7
 10
947.8359528169328
 20
1542.063631036083
 30
0.0
 70
    32
  0
VERTEX
  5
29C
  8
0
  6
CONTINUOUS
 62
     7
 10
947.8753007987102
 20
1542.063631036084
 30
0.0
 70
    32
  0
VERTEX
  5
29D
  8
0
  6
CONTINUOUS
 62
     7
 10
947.9148320724297
 20
1542.063631036084
 30
0.0
 70
    32
  0
VERTEX
  5
29E
  8
0
  6
CONTINUOUS
 62
     7
 10
947.9545299751876
 20
1542.063631036084
 30
0.0
 70
    32
  0
VERTEX
  5
29F
  8
0
  6
CONTINUOUS
 62
     7
 10
947.9943778440805
 20
1542.063631036084
 30
0.0
 70
    32
  0
VERTEX
  5
2A0
  8
0
  6
CONTINUOUS
 62
     7
 10
948.034359016204
 20
1542.063631036084
 30
0.0
 70
    32
  0
VERTEX
  5
2A1
  8
0
  6
CONTINUOUS
 62
     7
 10
948.0744568286548
 20
1542.063631036085
 30
0.0
 70
    32
  0
VERTEX
  5
2A2
  8
0
  6
CONTINUOUS
 62
     7
 10
948.1146546185284
 20
1542.063631036086
 30
0.0
 70
    32
  0
VERTEX
  5
2A3
  8
0
  6
CONTINUOUS
 62
     7
 10
948.1549357229214
 20
1542.063631036086
 30
0.0
 70
    32
  0
VERTEX
  5
2A4
  8
0
  6
CONTINUOUS
 62
     7
 10
948.1952834789297
 20
1542.063631036086
 30
0.0
 70
    32
  0
VERTEX
  5
2A5
  8
0
  6
CONTINUOUS
 62
     7
 10
948.2356812236495
 20
1542.063631036086
 30
0.0
 70
    32
  0
VERTEX
  5
2A6
  8
0
  6
CONTINUOUS
 62
     7
 10
948.2761122941773
 20
1542.063631036087
 30
0.0
 70
    32
  0
VERTEX
  5
2A7
  8
0
  6
CONTINUOUS
 62
     7
 10
948.316560027609
 20
1542.063631036087
 30
0.0
 70
    32
  0
SEQEND
  5
551
  8
0
  6
CONTINUOUS
 62
     7
  0
LINE
  5
CF
  8
0
  6
CONTINUOUS
 62
     7
 10
948.3165600276091
 20
1541.063631036088
 30
0.0
 11
948.3165600276088
 21
1542.063631036087
 31
0.0
  0
POLYLINE
  5
D0
  8
0
  6
CONTINUOUS
 62
     7
 10
0.0
 20
0.0
 30
0.0
 66
     1
 70
     8
  0
VERTEX
  5
2A8
  8
0
  6
CONTINUOUS
 62
     7
 10
948.3165600276325
 20
1485.063631036084
 30
0.0
 70
    32
  0
VERTEX
  5
2A9
  8
0
  6
CONTINUOUS
 62
     7
 10
948.2761115489351
 20
1485.063631036084
 30
0.0
 70
    32
  0
VERTEX
  5
2AA
  8
0
  6
CONTINUOUS
 62
     7
 10
948.2356797366327
 20
1485.063631036084
 30
0.0
 70
    32
  0
VERTEX
  5
2AB
  8
0
  6
CONTINUOUS
 62
     7
 10
948.1952812571197
 20
1485.063631036084
 30
0.0
 70
    32
  0
VERTEX
  5
2AC
  8
0
  6
CONTINUOUS
 62
     7
 10
948.1549327767914
 20
1485.063631036085
 30
0.0
 70
    32
  0
VERTEX
  5
2AD
  8
0
  6
CONTINUOUS
 62
     7
 10
948.1146509620421
 20
1485.063631036085
 30
0.0
 70
    32
  0
VERTEX
  5
2AE
  8
0
  6
CONTINUOUS
 62
     7
 10
948.0744524792669
 20
1485.063631036084
 30
0.0
 70
    32
  0
VERTEX
  5
2AF
  8
0
  6
CONTINUOUS
 62
     7
 10
948.0343539948608
 20
1485.063631036084
 30
0.0
 70
    32
  0
VERTEX
  5
2B0
  8
0
  6
CONTINUOUS
 62
     7
 10
947.9943721752184
 20
1485.063631036084
 30
0.0
 70
    32
  0
VERTEX
  5
2B1
  8
0
  6
CONTINUOUS
 62
     7
 10
947.9545236867342
 20
1485.063631036084
 30
0.0
 70
    32
  0
VERTEX
  5
2B2
  8
0
  6
CONTINUOUS
 62
     7
 10
947.9148251958036
 20
1485.063631036084
 30
0.0
 70
    32
  0
VERTEX
  5
2B3
  8
0
  6
CONTINUOUS
 62
     7
 10
947.8752933688212
 20
1485.063631036084
 30
0.0
 70
    32
  0
VERTEX
  5
2B4
  8
0
  6
CONTINUOUS
 62
     7
 10
947.8359448721817
 20
1485.063631036085
 30
0.0
 70
    32
  0
VERTEX
  5
2B5
  8
0
  6
CONTINUOUS
 62
     7
 10
947.7967963722799
 20
1485.063631036084
 30
0.0
 70
    32
  0
VERTEX
  5
2B6
  8
0
  6
CONTINUOUS
 62
     7
 10
947.757864535511
 20
1485.063631036085
 30
0.0
 70
    32
  0
VERTEX
  5
2B7
  8
0
  6
CONTINUOUS
 62
     7
 10
947.7191660282692
 20
1485.063631036084
 30
0.0
 70
    32
  0
VERTEX
  5
2B8
  8
0
  6
CONTINUOUS
 62
     7
 10
947.6807175169496
 20
1485.063631036084
 30
0.0
 70
    32
  0
VERTEX
  5
2B9
  8
0
  6
CONTINUOUS
 62
     7
 10
947.6425356679472
 20
1485.063631036084
 30
0.0
 70
    32
  0
VERTEX
  5
2BA
  8
0
  6
CONTINUOUS
 62
     7
 10
947.6046371476567
 20
1485.063631036084
 30
0.0
 70
    32
  0
VERTEX
  5
2BB
  8
0
  6
CONTINUOUS
 62
     7
 10
947.5670386227147
 20
1485.063631036084
 30
0.0
 70
    32
  0
VERTEX
  5
2BC
  8
0
  6
CONTINUOUS
 62
     7
 10
947.5297567722207
 20
1485.063631036084
 30
0.0
 70
    32
  0
VERTEX
  5
2BD
  8
0
  6
CONTINUOUS
 62
     7
 10
947.4928082934784
 20
1485.063631036085
 30
0.0
 70
    32
  0
VERTEX
  5
2BE
  8
0
  6
CONTINUOUS
 62
     7
 10
947.4562098852357
 20
1485.063631036084
 30
0.0
 70
    32
  0
VERTEX
  5
2BF
  8
0
  6
CONTINUOUS
 62
     7
 10
947.4199782462409
 20
1485.063631036084
 30
0.0
 70
    32
  0
VERTEX
  5
2C0
  8
0
  6
CONTINUOUS
 62
     7
 10
947.3841300752418
 20
1485.063631036084
 30
0.0
 70
    32
  0
VERTEX
  5
2C1
  8
0
  6
CONTINUOUS
 62
     7
 10
947.3486820709861
 20
1485.063631036084
 30
0.0
 70
    32
  0
VERTEX
  5
2C2
  8
0
  6
CONTINUOUS
 62
     7
 10
947.3136509322218
 20
1485.063631036085
 30
0.0
 70
    32
  0
VERTEX
  5
2C3
  8
0
  6
CONTINUOUS
 62
     7
 10
947.279053357697
 20
1485.063631036085
 30
0.0
 70
    32
  0
VERTEX
  5
2C4
  8
0
  6
CONTINUOUS
 62
     7
 10
947.2449060461591
 20
1485.063631036085
 30
0.0
 70
    32
  0
VERTEX
  5
2C5
  8
0
  6
CONTINUOUS
 62
     7
 10
947.2112256637607
 20
1485.063631036085
 30
0.0
 70
    32
  0
VERTEX
  5
2C6
  8
0
  6
CONTINUOUS
 62
     7
 10
947.1780233172171
 20
1485.063631036084
 30
0.0
 70
    32
  0
VERTEX
  5
2C7
  8
0
  6
CONTINUOUS
 62
     7
 10
947.1452983150596
 20
1485.063631036084
 30
0.0
 70
    32
  0
VERTEX
  5
2C8
  8
0
  6
CONTINUOUS
 62
     7
 10
947.113048459282
 20
1485.063631036085
 30
0.0
 70
    32
  0
VERTEX
  5
2C9
  8
0
  6
CONTINUOUS
 62
     7
 10
947.081271551878
 20
1485.063631036084
 30
0.0
 70
    32
  0
VERTEX
  5
2CA
  8
0
  6
CONTINUOUS
 62
     7
 10
947.0499653948418
 20
1485.063631036084
 30
0.0
 70
    32
  0
VERTEX
  5
2CB
  8
0
  6
CONTINUOUS
 62
     7
 10
947.0191277901674
 20
1485.063631036084
 30
0.0
 70
    32
  0
VERTEX
  5
2CC
  8
0
  6
CONTINUOUS
 62
     7
 10
946.9887565398487
 20
1485.063631036084
 30
0.0
 70
    32
  0
VERTEX
  5
2CD
  8
0
  6
CONTINUOUS
 62
     7
 10
946.9588494458797
 20
1485.063631036084
 30
0.0
 70
    32
  0
VERTEX
  5
2CE
  8
0
  6
CONTINUOUS
 62
     7
 10
946.9294043102542
 20
1485.063631036085
 30
0.0
 70
    32
  0
VERTEX
  5
2CF
  8
0
  6
CONTINUOUS
 62
     7
 10
946.9004189381558
 20
1485.063631036084
 30
0.0
 70
    32
  0
VERTEX
  5
2D0
  8
0
  6
CONTINUOUS
 62
     7
 10
946.8719040078366
 20
1485.063631036084
 30
0.0
 70
    32
  0
VERTEX
  5
2D1
  8
0
  6
CONTINUOUS
 62
     7
 10
946.8439123527195
 20
1485.063631036085
 30
0.0
 70
    32
  0
VERTEX
  5
2D2
  8
0
  6
CONTINUOUS
 62
     7
 10
946.8165054216958
 20
1485.063631036085
 30
0.0
 70
    32
  0
VERTEX
  5
2D3
  8
0
  6
CONTINUOUS
 62
     7
 10
946.7897446636573
 20
1485.063631036085
 30
0.0
 70
    32
  0
VERTEX
  5
2D4
  8
0
  6
CONTINUOUS
 62
     7
 10
946.7636915274945
 20
1485.063631036084
 30
0.0
 70
    32
  0
VERTEX
  5
2D5
  8
0
  6
CONTINUOUS
 62
     7
 10
946.7384074620994
 20
1485.063631036085
 30
0.0
 70
    32
  0
VERTEX
  5
2D6
  8
0
  6
CONTINUOUS
 62
     7
 10
946.7139539163629
 20
1485.063631036085
 30
0.0
 70
    32
  0
VERTEX
  5
2D7
  8
0
  6
CONTINUOUS
 62
     7
 10
946.6903923391768
 20
1485.063631036084
 30
0.0
 70
    32
  0
VERTEX
  5
2D8
  8
0
  6
CONTINUOUS
 62
     7
 10
946.6677841794319
 20
1485.063631036084
 30
0.0
 70
    32
  0
VERTEX
  5
2D9
  8
0
  6
CONTINUOUS
 62
     7
 10
946.6461908860199
 20
1485.063631036084
 30
0.0
 70
    32
  0
VERTEX
  5
2DA
  8
0
  6
CONTINUOUS
 62
     7
 10
946.6256448209712
 20
1485.063631036084
 30
0.0
 70
    32
  0
VERTEX
  5
2DB
  8
0
  6
CONTINUOUS
 62
     7
 10
946.6060344578987
 20
1485.063631036085
 30
0.0
 70
    32
  0
VERTEX
  5
2DC
  8
0
  6
CONTINUOUS
 62
     7
 10
946.5872038571052
 20
1485.063631036084
 30
0.0
 70
    32
  0
VERTEX
  5
2DD
  8
0
  6
CONTINUOUS
 62
     7
 10
946.5689970661352
 20
1485.063631036084
 30
0.0
 70
    32
  0
VERTEX
  5
2DE
  8
0
  6
CONTINUOUS
 62
     7
 10
946.5512581325333
 20
1485.063631036084
 30
0.0
 70
    32
  0
VERTEX
  5
2DF
  8
0
  6
CONTINUOUS
 62
     7
 10
946.5338311038429
 20
1485.063631036084
 30
0.0
 70
    32
  0
VERTEX
  5
2E0
  8
0
  6
CONTINUOUS
 62
     7
 10
946.5165600276084
 20
1485.063631036084
 30
0.0
 70
    32
  0
SEQEND
  5
552
  8
0
  6
CONTINUOUS
 62
     7
  0
LINE
  5
D1
  8
0
  6
CONTINUOUS
 62
     7
 10
948.3165600276183
 20
1486.063631036083
 30
0.0
 11
948.3165600276325
 21
1485.063631036084
 31
0.0
  0
POLYLINE
  5
D2
  8
0
  6
CONTINUOUS
 62
     7
 66
     1
 10
0.0
 20
0.0
 30
0.0
  0
VERTEX
  5
2E1
  8
0
  6
CONTINUOUS
 62
     7
 10
946.5165600276085
 20
1523.809395376265
 30
0.0
  0
VERTEX
  5
2E2
  8
0
  6
CONTINUOUS
 62
     7
 10
946.5279712126285
 20
1523.795886967076
 30
0.0
  0
VERTEX
  5
2E3
  8
0
  6
CONTINUOUS
 62
     7
 10
946.5396973060276
 20
1523.78274031297
 30
0.0
  0
VERTEX
  5
2E4
  8
0
  6
CONTINUOUS
 62
     7
 10
946.551885931156
 20
1523.770129871818
 30
0.0
  0
VERTEX
  5
2E5
  8
0
  6
CONTINUOUS
 62
     7
 10
946.5645237422281
 20
1523.758049875737
 30
0.0
  0
VERTEX
  5
2E6
  8
0
  6
CONTINUOUS
 62
     7
 10
946.5775908699328
 20
1523.746487252917
 30
0.0
  0
VERTEX
  5
2E7
  8
0
  6
CONTINUOUS
 62
     7
 10
946.5910674449591
 20
1523.735428931544
 30
0.0
  0
VERTEX
  5
2E8
  8
0
  6
CONTINUOUS
 62
     7
 10
946.6049335979957
 20
1523.724861839806
 30
0.0
  0
VERTEX
  5
2E9
  8
0
  6
CONTINUOUS
 62
     7
 10
946.6191694597322
 20
1523.714772905891
 30
0.0
  0
VERTEX
  5
2EA
  8
0
  6
CONTINUOUS
 62
     7
 10
946.6337551608577
 20
1523.705149057987
 30
0.0
  0
VERTEX
  5
2EB
  8
0
  6
CONTINUOUS
 62
     7
 10
946.6486708320604
 20
1523.695977224281
 30
0.0
  0
VERTEX
  5
2EC
  8
0
  6
CONTINUOUS
 62
     7
 10
946.6638966040298
 20
1523.687244332963
 30
0.0
  0
VERTEX
  5
2ED
  8
0
  6
CONTINUOUS
 62
     7
 10
946.6794126074548
 20
1523.678937312217
 30
0.0
  0
VERTEX
  5
2EE
  8
0
  6
CONTINUOUS
 62
     7
 10
946.6951989730243
 20
1523.671043090234
 30
0.0
  0
VERTEX
  5
2EF
  8
0
  6
CONTINUOUS
 62
     7
 10
946.7112358314274
 20
1523.663548595201
 30
0.0
  0
VERTEX
  5
2F0
  8
0
  6
CONTINUOUS
 62
     7
 10
946.7275033133533
 20
1523.656440755305
 30
0.0
  0
VERTEX
  5
2F1
  8
0
  6
CONTINUOUS
 62
     7
 10
946.7439815494904
 20
1523.649706498734
 30
0.0
  0
VERTEX
  5
2F2
  8
0
  6
CONTINUOUS
 62
     7
 10
946.7606506705283
 20
1523.643332753676
 30
0.0
  0
VERTEX
  5
2F3
  8
0
  6
CONTINUOUS
 62
     7
 10
946.7774908071558
 20
1523.637306448319
 30
0.0
  0
VERTEX
  5
2F4
  8
0
  6
CONTINUOUS
 62
     7
 10
946.794482090062
 20
1523.63161451085
 30
0.0
  0
VERTEX
  5
2F5
  8
0
  6
CONTINUOUS
 62
     7
 10
946.8116046499356
 20
1523.626243869458
 30
0.0
  0
VERTEX
  5
2F6
  8
0
  6
CONTINUOUS
 62
     7
 10
946.8288386174656
 20
1523.621181452329
 30
0.0
  0
VERTEX
  5
2F7
  8
0
  6
CONTINUOUS
 62
     7
 10
946.8461641237454
 20
1523.616414187587
 30
0.0
  0
VERTEX
  5
2F8
  8
0
  6
CONTINUOUS
 62
     7
 10
946.8635643850549
 20
1523.611928498595
 30
0.0
  0
VERTEX
  5
2F9
  8
0
  6
CONTINUOUS
 62
     7
 10
946.8810331339864
 20
1523.607709088177
 30
0.0
  0
VERTEX
  5
2FA
  8
0
  6
CONTINUOUS
 62
     7
 10
946.898566341856
 20
1523.603740292889
 30
0.0
  0
VERTEX
  5
2FB
  8
0
  6
CONTINUOUS
 62
     7
 10
946.9161599799808
 20
1523.600006449285
 30
0.0
  0
VERTEX
  5
2FC
  8
0
  6
CONTINUOUS
 62
     7
 10
946.9338100196762
 20
1523.596491893918
 30
0.0
  0
VERTEX
  5
2FD
  8
0
  6
CONTINUOUS
 62
     7
 10
946.9515124322592
 20
1523.593180963344
 30
0.0
  0
VERTEX
  5
2FE
  8
0
  6
CONTINUOUS
 62
     7
 10
946.9692631890457
 20
1523.590057994117
 30
0.0
  0
VERTEX
  5
2FF
  8
0
  6
CONTINUOUS
 62
     7
 10
946.9870582613523
 20
1523.587107322791
 30
0.0
  0
VERTEX
  5
300
  8
0
  6
CONTINUOUS
 62
     7
 10
947.0048936204959
 20
1523.584313285921
 30
0.0
  0
VERTEX
  5
301
  8
0
  6
CONTINUOUS
 62
     7
 10
947.022765237792
 20
1523.581660220061
 30
0.0
  0
VERTEX
  5
302
  8
0
  6
CONTINUOUS
 62
     7
 10
947.0406690845571
 20
1523.579132461766
 30
0.0
  0
VERTEX
  5
303
  8
0
  6
CONTINUOUS
 62
     7
 10
947.0586011321077
 20
1523.57671434759
 30
0.0
  0
VERTEX
  5
304
  8
0
  6
CONTINUOUS
 62
     7
 10
947.0765573517606
 20
1523.574390214087
 30
0.0
  0
VERTEX
  5
305
  8
0
  6
CONTINUOUS
 62
     7
 10
947.0945337148314
 20
1523.572144397812
 30
0.0
  0
VERTEX
  5
306
  8
0
  6
CONTINUOUS
 62
     7
 10
947.1125261926368
 20
1523.56996123532
 30
0.0
  0
VERTEX
  5
307
  8
0
  6
CONTINUOUS
 62
     7
 10
947.1305307564932
 20
1523.567825063164
 30
0.0
  0
VERTEX
  5
308
  8
0
  6
CONTINUOUS
 62
     7
 10
947.1485433777167
 20
1523.5657202179
 30
0.0
  0
VERTEX
  5
309
  8
0
  6
CONTINUOUS
 62
     7
 10
947.1665600276241
 20
1523.56363103608
 30
0.0
  0
SEQEND
  5
553
  8
0
  6
CONTINUOUS
 62
     7
  0
LINE
  5
D3
  8
0
  6
CONTINUOUS
 62
     7
 10
948.3165600276091
 20
1541.063631036088
 30
0.0
 11
948.3165600276095
 21
1531.955205193832
 31
0.0
  0
LINE
  5
D4
  8
0
  6
CONTINUOUS
 62
     7
 10
948.0165600276177
 20
1523.56363103608
 30
0.0
 11
947.1665600276241
 21
1523.56363103608
 31
0.0
  0
LINE
  5
D5
  8
0
  6
CONTINUOUS
 62
     7
 10
948.516560027609
 20
1541.063631036088
 30
0.0
 11
948.3165600276091
 21
1541.063631036088
 31
0.0
  0
LINE
  5
D6
  8
0
  6
CONTINUOUS
 62
     7
 10
948.5165600276182
 20
1486.063631036083
 30
0.0
 11
948.3165600276183
 21
1486.063631036083
 31
0.0
  0
LINE
  5
D7
  8
0
  6
CONTINUOUS
 62
     7
 10
948.3165600276152
 20
1495.172056878333
 30
0.0
 11
948.3165600276183
 21
1486.063631036083
 31
0.0
  0
POLYLINE
  5
D8
  8
0
  6
CONTINUOUS
 62
     7
 66
     1
 10
0.0
 20
0.0
 30
0.0
  0
VERTEX
  5
30A
  8
0
  6
CONTINUOUS
 62
     7
 10
947.1665600276132
 20
1503.563631036081
 30
0.0
  0
VERTEX
  5
30B
  8
0
  6
CONTINUOUS
 62
     7
 10
947.1436745689829
 20
1503.561355713088
 30
0.0
  0
VERTEX
  5
30C
  8
0
  6
CONTINUOUS
 62
     7
 10
947.120809104782
 20
1503.559039462614
 30
0.0
  0
VERTEX
  5
30D
  8
0
  6
CONTINUOUS
 62
     7
 10
947.0979836294403
 20
1503.556641357175
 30
0.0
  0
VERTEX
  5
30E
  8
0
  6
CONTINUOUS
 62
     7
 10
947.0752181373867
 20
1503.554120469289
 30
0.0
  0
VERTEX
  5
30F
  8
0
  6
CONTINUOUS
 62
     7
 10
947.0525326230517
 20
1503.551435871474
 30
0.0
  0
VERTEX
  5
310
  8
0
  6
CONTINUOUS
 62
     7
 10
947.0299470808637
 20
1503.548546636247
 30
0.0
  0
VERTEX
  5
311
  8
0
  6
CONTINUOUS
 62
     7
 10
947.0074815052532
 20
1503.545411836127
 30
0.0
  0
VERTEX
  5
312
  8
0
  6
CONTINUOUS
 62
     7
 10
946.9851558906489
 20
1503.54199054363
 30
0.0
  0
VERTEX
  5
313
  8
0
  6
CONTINUOUS
 62
     7
 10
946.962990231481
 20
1503.538241831275
 30
0.0
  0
VERTEX
  5
314
  8
0
  6
CONTINUOUS
 62
     7
 10
946.9410045221783
 20
1503.534124771579
 30
0.0
  0
VERTEX
  5
315
  8
0
  6
CONTINUOUS
 62
     7
 10
946.9192187571707
 20
1503.52959843706
 30
0.0
  0
VERTEX
  5
316
  8
0
  6
CONTINUOUS
 62
     7
 10
946.897652930888
 20
1503.524621900235
 30
0.0
  0
VERTEX
  5
317
  8
0
  6
CONTINUOUS
 62
     7
 10
946.8763270377592
 20
1503.519154233623
 30
0.0
  0
VERTEX
  5
318
  8
0
  6
CONTINUOUS
 62
     7
 10
946.8552610722139
 20
1503.513154509741
 30
0.0
  0
VERTEX
  5
319
  8
0
  6
CONTINUOUS
 62
     7
 10
946.834475028682
 20
1503.506581801107
 30
0.0
  0
VERTEX
  5
31A
  8
0
  6
CONTINUOUS
 62
     7
 10
946.8139889015927
 20
1503.499395180238
 30
0.0
  0
VERTEX
  5
31B
  8
0
  6
CONTINUOUS
 62
     7
 10
946.7938186988534
 20
1503.491561879839
 30
0.0
  0
VERTEX
  5
31C
  8
0
  6
CONTINUOUS
 62
     7
 10
946.7739544537129
 20
1503.483102301297
 30
0.0
  0
VERTEX
  5
31D
  8
0
  6
CONTINUOUS
 62
     7
 10
946.7543757948602
 20
1503.474058143548
 30
0.0
  0
VERTEX
  5
31E
  8
0
  6
CONTINUOUS
 62
     7
 10
946.7350623232746
 20
1503.46447116225
 30
0.0
  0
VERTEX
  5
31F
  8
0
  6
CONTINUOUS
 62
     7
 10
946.7159936399356
 20
1503.454383113061
 30
0.0
  0
VERTEX
  5
320
  8
0
  6
CONTINUOUS
 62
     7
 10
946.6971493458228
 20
1503.443835751638
 30
0.0
  0
VERTEX
  5
321
  8
0
  6
CONTINUOUS
 62
     7
 10
946.6785090419155
 20
1503.432870833639
 30
0.0
  0
VERTEX
  5
322
  8
0
  6
CONTINUOUS
 62
     7
 10
946.6600523291934
 20
1503.421530114721
 30
0.0
  0
VERTEX
  5
323
  8
0
  6
CONTINUOUS
 62
     7
 10
946.6417588086356
 20
1503.409855350542
 30
0.0
  0
VERTEX
  5
324
  8
0
  6
CONTINUOUS
 62
     7
 10
946.6236080812216
 20
1503.397888296759
 30
0.0
  0
VERTEX
  5
325
  8
0
  6
CONTINUOUS
 62
     7
 10
946.6055797479311
 20
1503.385670709031
 30
0.0
  0
VERTEX
  5
326
  8
0
  6
CONTINUOUS
 62
     7
 10
946.587653409743
 20
1503.373244343015
 30
0.0
  0
VERTEX
  5
327
  8
0
  6
CONTINUOUS
 62
     7
 10
946.5698086676375
 20
1503.360650954369
 30
0.0
  0
VERTEX
  5
328
  8
0
  6
CONTINUOUS
 62
     7
 10
946.5520251225935
 20
1503.347932298749
 30
0.0
  0
VERTEX
  5
329
  8
0
  6
CONTINUOUS
 62
     7
 10
946.5342823755907
 20
1503.335130131814
 30
0.0
  0
VERTEX
  5
32A
  8
0
  6
CONTINUOUS
 62
     7
 10
946.5165600276084
 20
1503.322286209222
 30
0.0
  0
SEQEND
  5
554
  8
0
  6
CONTINUOUS
 62
     7
  0
LINE
  5
D9
  8
0
  6
CONTINUOUS
 62
     7
 10
947.1665600276132
 20
1503.563631036081
 30
0.0
 11
948.0165600276176
 21
1503.563631036083
 31
0.0
  0
LINE
  5
DA
  8
0
  6
CONTINUOUS
 62
     7
 10
948.5165600276088
 20
1542.063631036087
 30
0.0
 11
948.3165600276088
 21
1542.063631036087
 31
0.0
  0
LINE
  5
DB
  8
0
  6
CONTINUOUS
 62
     7
 10
948.5165600276324
 20
1485.063631036084
 30
0.0
 11
948.3165600276325
 21
1485.063631036084
 31
0.0
  0
LINE
  5
DC
  8
0
  6
CONTINUOUS
 62
     7
 10
948.016560027608
 20
702.5195891751399
 30
0.0
 11
948.5165600276097
 21
702.5195891751403
 31
0.0
  0
LINE
  5
DD
  8
0
  6
CONTINUOUS
 62
     7
 10
948.0165600276076
 20
700.9636310358475
 30
0.0
 11
948.5165600276075
 21
700.9636310358475
 31
0.0
  0
LINE
  5
DE
  8
0
  6
CONTINUOUS
 62
     7
 10
948.0165600276076
 20
700.9636310358475
 30
0.0
 11
948.016560027608
 21
702.5195891751399
 31
0.0
  0
LINE
  5
DF
  8
0
  6
CONTINUOUS
 62
     7
 10
948.5165600276097
 20
684.6076728970112
 30
0.0
 11
948.0165600276147
 21
684.6076728970123
 31
0.0
  0
LINE
  5
E0
  8
0
  6
CONTINUOUS
 62
     7
 10
948.0165600276147
 20
684.6076728970123
 30
0.0
 11
948.0165600276233
 21
686.1636310362985
 31
0.0
  0
LINE
  5
E1
  8
0
  6
CONTINUOUS
 62
     7
 10
948.5165600276233
 20
686.1636310362985
 30
0.0
 11
948.0165600276233
 21
686.1636310362985
 31
0.0
  0
LINE
  5
E2
  8
0
  6
CONTINUOUS
 62
     7
 10
948.3165600276095
 20
711.9552051938322
 30
0.0
 11
948.0165600276093
 21
711.9552051938322
 31
0.0
  0
LINE
  5
E3
  8
0
  6
CONTINUOUS
 62
     7
 10
948.5165600276096
 20
711.9552051938322
 30
0.0
 11
948.3165600276095
 21
711.9552051938322
 31
0.0
  0
LINE
  5
E4
  8
0
  6
CONTINUOUS
 62
     7
 10
948.0165600276093
 20
711.9552051938322
 30
0.0
 11
948.016560027608
 21
702.5195891751399
 31
0.0
  0
LINE
  5
E5
  8
0
  6
CONTINUOUS
 62
     7
 10
948.3165600276152
 20
675.1720568783327
 30
0.0
 11
948.5165600276152
 21
675.1720568783327
 31
0.0
  0
LINE
  5
E6
  8
0
  6
CONTINUOUS
 62
     7
 10
948.0165600276152
 20
675.1720568783327
 30
0.0
 11
948.3165600276152
 21
675.1720568783327
 31
0.0
  0
LINE
  5
E7
  8
0
  6
CONTINUOUS
 62
     7
 10
948.0165600276147
 20
684.6076728970123
 30
0.0
 11
948.0165600276152
 21
675.1720568783327
 31
0.0
  0
POLYLINE
  5
E8
  8
0
  6
CONTINUOUS
 62
     7
 10
0.0
 20
0.0
 30
0.0
 66
     1
 70
     8
  0
VERTEX
  5
32B
  8
0
  6
CONTINUOUS
 62
     7
 10
946.5165600276084
 20
722.0636310360815
 30
0.0
 70
    32
  0
VERTEX
  5
32C
  8
0
  6
CONTINUOUS
 62
     7
 10
946.5338288529879
 20
722.0636310360815
 30
0.0
 70
    32
  0
VERTEX
  5
32D
  8
0
  6
CONTINUOUS
 62
     7
 10
946.5512539364587
 20
722.0636310360815
 30
0.0
 70
    32
  0
VERTEX
  5
32E
  8
0
  6
CONTINUOUS
 62
     7
 10
946.5689915361121
 20
722.0636310360813
 30
0.0
 70
    32
  0
VERTEX
  5
32F
  8
0
  6
CONTINUOUS
 62
     7
 10
946.5871979100399
 20
722.0636310360815
 30
0.0
 70
    32
  0
VERTEX
  5
330
  8
0
  6
CONTINUOUS
 62
     7
 10
946.6060293163329
 20
722.0636310360816
 30
0.0
 70
    32
  0
VERTEX
  5
331
  8
0
  6
CONTINUOUS
 62
     7
 10
946.6256420130828
 20
722.0636310360816
 30
0.0
 70
    32
  0
VERTEX
  5
332
  8
0
  6
CONTINUOUS
 62
     7
 10
946.6461922363715
 20
722.0636310360815
 30
0.0
 70
    32
  0
VERTEX
  5
333
  8
0
  6
CONTINUOUS
 62
     7
 10
946.6677900239903
 20
722.0636310360813
 30
0.0
 70
    32
  0
VERTEX
  5
334
  8
0
  6
CONTINUOUS
 62
     7
 10
946.6904018193112
 20
722.0636310360816
 30
0.0
 70
    32
  0
VERTEX
  5
335
  8
0
  6
CONTINUOUS
 62
     7
 10
946.7139662480924
 20
722.0636310360816
 30
0.0
 70
    32
  0
VERTEX
  5
336
  8
0
  6
CONTINUOUS
 62
     7
 10
946.738421936093
 20
722.0636310360816
 30
0.0
 70
    32
  0
VERTEX
  5
337
  8
0
  6
CONTINUOUS
 62
     7
 10
946.7637075090713
 20
722.0636310360815
 30
0.0
 70
    32
  0
VERTEX
  5
338
  8
0
  6
CONTINUOUS
 62
     7
 10
946.7897615927862
 20
722.0636310360815
 30
0.0
 70
    32
  0
VERTEX
  5
339
  8
0
  6
CONTINUOUS
 62
     7
 10
946.8165228129965
 20
722.0636310360816
 30
0.0
 70
    32
  0
VERTEX
  5
33A
  8
0
  6
CONTINUOUS
 62
     7
 10
946.8439297954604
 20
722.0636310360815
 30
0.0
 70
    32
  0
VERTEX
  5
33B
  8
0
  6
CONTINUOUS
 62
     7
 10
946.871921165937
 20
722.0636310360815
 30
0.0
 70
    32
  0
VERTEX
  5
33C
  8
0
  6
CONTINUOUS
 62
     7
 10
946.9004355501849
 20
722.0636310360815
 30
0.0
 70
    32
  0
VERTEX
  5
33D
  8
0
  6
CONTINUOUS
 62
     7
 10
946.9294202010385
 20
722.0636310360813
 30
0.0
 70
    32
  0
VERTEX
  5
33E
  8
0
  6
CONTINUOUS
 62
     7
 10
946.9588645099187
 20
722.0636310360816
 30
0.0
 70
    32
  0
VERTEX
  5
33F
  8
0
  6
CONTINUOUS
 62
     7
 10
946.9887707143278
 20
722.0636310360815
 30
0.0
 70
    32
  0
VERTEX
  5
340
  8
0
  6
CONTINUOUS
 62
     7
 10
947.0191410548744
 20
722.0636310360816
 30
0.0
 70
    32
  0
VERTEX
  5
341
  8
0
  6
CONTINUOUS
 62
     7
 10
947.0499777721673
 20
722.0636310360815
 30
0.0
 70
    32
  0
VERTEX
  5
342
  8
0
  6
CONTINUOUS
 62
     7
 10
947.0812831068149
 20
722.0636310360816
 30
0.0
 70
    32
  0
VERTEX
  5
343
  8
0
  6
CONTINUOUS
 62
     7
 10
947.1130592994263
 20
722.0636310360815
 30
0.0
 70
    32
  0
VERTEX
  5
344
  8
0
  6
CONTINUOUS
 62
     7
 10
947.1453085906102
 20
722.0636310360816
 30
0.0
 70
    32
  0
VERTEX
  5
345
  8
0
  6
CONTINUOUS
 62
     7
 10
947.1780332209751
 20
722.0636310360815
 30
0.0
 70
    32
  0
VERTEX
  5
346
  8
0
  6
CONTINUOUS
 62
     7
 10
947.21123543113
 20
722.0636310360815
 30
0.0
 70
    32
  0
VERTEX
  5
347
  8
0
  6
CONTINUOUS
 62
     7
 10
947.244915869939
 20
722.0636310360815
 30
0.0
 70
    32
  0
VERTEX
  5
348
  8
0
  6
CONTINUOUS
 62
     7
 10
947.279063263262
 20
722.0636310360813
 30
0.0
 70
    32
  0
VERTEX
  5
349
  8
0
  6
CONTINUOUS
 62
     7
 10
947.3136609301725
 20
722.0636310360815
 30
0.0
 70
    32
  0
VERTEX
  5
34A
  8
0
  6
CONTINUOUS
 62
     7
 10
947.3486921628623
 20
722.0636310360813
 30
0.0
 70
    32
  0
VERTEX
  5
34B
  8
0
  6
CONTINUOUS
 62
     7
 10
947.3841402535239
 20
722.0636310360813
 30
0.0
 70
    32
  0
VERTEX
  5
34C
  8
0
  6
CONTINUOUS
 62
     7
 10
947.4199884943494
 20
722.0636310360813
 30
0.0
 70
    32
  0
VERTEX
  5
34D
  8
0
  6
CONTINUOUS
 62
     7
 10
947.4562201775313
 20
722.0636310360813
 30
0.0
 70
    32
  0
VERTEX
  5
34E
  8
0
  6
CONTINUOUS
 62
     7
 10
947.4928185952621
 20
722.0636310360813
 30
0.0
 70
    32
  0
VERTEX
  5
34F
  8
0
  6
CONTINUOUS
 62
     7
 10
947.5297670397341
 20
722.0636310360815
 30
0.0
 70
    32
  0
VERTEX
  5
350
  8
0
  6
CONTINUOUS
 62
     7
 10
947.5670488031393
 20
722.0636310360815
 30
0.0
 70
    32
  0
VERTEX
  5
351
  8
0
  6
CONTINUOUS
 62
     7
 10
947.6046471796764
 20
722.0636310360816
 30
0.0
 70
    32
  0
VERTEX
  5
352
  8
0
  6
CONTINUOUS
 62
     7
 10
947.6425454888181
 20
722.0636310360817
 30
0.0
 70
    32
  0
VERTEX
  5
353
  8
0
  6
CONTINUOUS
 62
     7
 10
947.6807270673253
 20
722.0636310360819
 30
0.0
 70
    32
  0
VERTEX
  5
354
  8
0
  6
CONTINUOUS
 62
     7
 10
947.7191752522943
 20
722.0636310360819
 30
0.0
 70
    32
  0
VERTEX
  5
355
  8
0
  6
CONTINUOUS
 62
     7
 10
947.7578733808213
 20
722.0636310360823
 30
0.0
 70
    32
  0
VERTEX
  5
356
  8
0
  6
CONTINUOUS
 62
     7
 10
947.7968047900022
 20
722.0636310360826
 30
0.0
 70
    32
  0
VERTEX
  5
357
  8
0
  6
CONTINUOUS
 62
     7
 10
947.8359528169326
 20
722.0636310360827
 30
0.0
 70
    32
  0
VERTEX
  5
358
  8
0
  6
CONTINUOUS
 62
     7
 10
947.8753007987103
 20
722.0636310360832
 30
0.0
 70
    32
  0
VERTEX
  5
359
  8
0
  6
CONTINUOUS
 62
     7
 10
947.9148320724295
 20
722.0636310360833
 30
0.0
 70
    32
  0
VERTEX
  5
35A
  8
0
  6
CONTINUOUS
 62
     7
 10
947.9545299751877
 20
722.0636310360837
 30
0.0
 70
    32
  0
VERTEX
  5
35B
  8
0
  6
CONTINUOUS
 62
     7
 10
947.9943778440804
 20
722.063631036084
 30
0.0
 70
    32
  0
VERTEX
  5
35C
  8
0
  6
CONTINUOUS
 62
     7
 10
948.0343590162039
 20
722.0636310360843
 30
0.0
 70
    32
  0
VERTEX
  5
35D
  8
0
  6
CONTINUOUS
 62
     7
 10
948.0744568286545
 20
722.0636310360846
 30
0.0
 70
    32
  0
VERTEX
  5
35E
  8
0
  6
CONTINUOUS
 62
     7
 10
948.1146546185282
 20
722.063631036085
 30
0.0
 70
    32
  0
VERTEX
  5
35F
  8
0
  6
CONTINUOUS
 62
     7
 10
948.1549357229212
 20
722.0636310360853
 30
0.0
 70
    32
  0
VERTEX
  5
360
  8
0
  6
CONTINUOUS
 62
     7
 10
948.1952834789297
 20
722.0636310360858
 30
0.0
 70
    32
  0
VERTEX
  5
361
  8
0
  6
CONTINUOUS
 62
     7
 10
948.2356812236496
 20
722.0636310360861
 30
0.0
 70
    32
  0
VERTEX
  5
362
  8
0
  6
CONTINUOUS
 62
     7
 10
948.2761122941773
 20
722.0636310360866
 30
0.0
 70
    32
  0
VERTEX
  5
363
  8
0
  6
CONTINUOUS
 62
     7
 10
948.3165600276088
 20
722.0636310360869
 30
0.0
 70
    32
  0
SEQEND
  5
555
  8
0
  6
CONTINUOUS
 62
     7
  0
LINE
  5
E9
  8
0
  6
CONTINUOUS
 62
     7
 10
948.3165600276091
 20
721.0636310360877
 30
0.0
 11
948.3165600276088
 21
722.0636310360869
 31
0.0
  0
POLYLINE
  5
EA
  8
0
  6
CONTINUOUS
 62
     7
 10
0.0
 20
0.0
 30
0.0
 66
     1
 70
     8
  0
VERTEX
  5
364
  8
0
  6
CONTINUOUS
 62
     7
 10
948.3165600276325
 20
665.0636310360843
 30
0.0
 70
    32
  0
VERTEX
  5
365
  8
0
  6
CONTINUOUS
 62
     7
 10
948.2761115489352
 20
665.0636310360843
 30
0.0
 70
    32
  0
VERTEX
  5
366
  8
0
  6
CONTINUOUS
 62
     7
 10
948.2356797366326
 20
665.0636310360843
 30
0.0
 70
    32
  0
VERTEX
  5
367
  8
0
  6
CONTINUOUS
 62
     7
 10
948.1952812571196
 20
665.0636310360842
 30
0.0
 70
    32
  0
VERTEX
  5
368
  8
0
  6
CONTINUOUS
 62
     7
 10
948.1549327767915
 20
665.0636310360842
 30
0.0
 70
    32
  0
VERTEX
  5
369
  8
0
  6
CONTINUOUS
 62
     7
 10
948.1146509620421
 20
665.0636310360843
 30
0.0
 70
    32
  0
VERTEX
  5
36A
  8
0
  6
CONTINUOUS
 62
     7
 10
948.0744524792669
 20
665.0636310360843
 30
0.0
 70
    32
  0
VERTEX
  5
36B
  8
0
  6
CONTINUOUS
 62
     7
 10
948.0343539948607
 20
665.0636310360841
 30
0.0
 70
    32
  0
VERTEX
  5
36C
  8
0
  6
CONTINUOUS
 62
     7
 10
947.994372175218
 20
665.0636310360841
 30
0.0
 70
    32
  0
VERTEX
  5
36D
  8
0
  6
CONTINUOUS
 62
     7
 10
947.9545236867343
 20
665.0636310360841
 30
0.0
 70
    32
  0
VERTEX
  5
36E
  8
0
  6
CONTINUOUS
 62
     7
 10
947.9148251958039
 20
665.0636310360842
 30
0.0
 70
    32
  0
VERTEX
  5
36F
  8
0
  6
CONTINUOUS
 62
     7
 10
947.8752933688214
 20
665.0636310360842
 30
0.0
 70
    32
  0
VERTEX
  5
370
  8
0
  6
CONTINUOUS
 62
     7
 10
947.8359448721818
 20
665.0636310360842
 30
0.0
 70
    32
  0
VERTEX
  5
371
  8
0
  6
CONTINUOUS
 62
     7
 10
947.7967963722801
 20
665.0636310360842
 30
0.0
 70
    32
  0
VERTEX
  5
372
  8
0
  6
CONTINUOUS
 62
     7
 10
947.7578645355107
 20
665.0636310360841
 30
0.0
 70
    32
  0
VERTEX
  5
373
  8
0
  6
CONTINUOUS
 62
     7
 10
947.7191660282691
 20
665.0636310360842
 30
0.0
 70
    32
  0
VERTEX
  5
374
  8
0
  6
CONTINUOUS
 62
     7
 10
947.6807175169496
 20
665.0636310360841
 30
0.0
 70
    32
  0
VERTEX
  5
375
  8
0
  6
CONTINUOUS
 62
     7
 10
947.6425356679472
 20
665.0636310360842
 30
0.0
 70
    32
  0
VERTEX
  5
376
  8
0
  6
CONTINUOUS
 62
     7
 10
947.6046371476566
 20
665.0636310360841
 30
0.0
 70
    32
  0
VERTEX
  5
377
  8
0
  6
CONTINUOUS
 62
     7
 10
947.567038622715
 20
665.0636310360842
 30
0.0
 70
    32
  0
VERTEX
  5
378
  8
0
  6
CONTINUOUS
 62
     7
 10
947.5297567722207
 20
665.0636310360842
 30
0.0
 70
    32
  0
VERTEX
  5
379
  8
0
  6
CONTINUOUS
 62
     7
 10
947.4928082934783
 20
665.0636310360841
 30
0.0
 70
    32
  0
VERTEX
  5
37A
  8
0
  6
CONTINUOUS
 62
     7
 10
947.4562098852358
 20
665.0636310360842
 30
0.0
 70
    32
  0
VERTEX
  5
37B
  8
0
  6
CONTINUOUS
 62
     7
 10
947.4199782462409
 20
665.0636310360841
 30
0.0
 70
    32
  0
VERTEX
  5
37C
  8
0
  6
CONTINUOUS
 62
     7
 10
947.3841300752416
 20
665.0636310360842
 30
0.0
 70
    32
  0
VERTEX
  5
37D
  8
0
  6
CONTINUOUS
 62
     7
 10
947.3486820709861
 20
665.0636310360842
 30
0.0
 70
    32
  0
VERTEX
  5
37E
  8
0
  6
CONTINUOUS
 62
     7
 10
947.3136509322215
 20
665.0636310360841
 30
0.0
 70
    32
  0
VERTEX
  5
37F
  8
0
  6
CONTINUOUS
 62
     7
 10
947.2790533576966
 20
665.0636310360841
 30
0.0
 70
    32
  0
VERTEX
  5
380
  8
0
  6
CONTINUOUS
 62
     7
 10
947.244906046159
 20
665.0636310360842
 30
0.0
 70
    32
  0
VERTEX
  5
381
  8
0
  6
CONTINUOUS
 62
     7
 10
947.2112256637607
 20
665.0636310360843
 30
0.0
 70
    32
  0
VERTEX
  5
382
  8
0
  6
CONTINUOUS
 62
     7
 10
947.1780233172174
 20
665.0636310360842
 30
0.0
 70
    32
  0
VERTEX
  5
383
  8
0
  6
CONTINUOUS
 62
     7
 10
947.1452983150596
 20
665.0636310360841
 30
0.0
 70
    32
  0
VERTEX
  5
384
  8
0
  6
CONTINUOUS
 62
     7
 10
947.113048459282
 20
665.0636310360842
 30
0.0
 70
    32
  0
VERTEX
  5
385
  8
0
  6
CONTINUOUS
 62
     7
 10
947.0812715518781
 20
665.0636310360843
 30
0.0
 70
    32
  0
VERTEX
  5
386
  8
0
  6
CONTINUOUS
 62
     7
 10
947.0499653948419
 20
665.0636310360842
 30
0.0
 70
    32
  0
VERTEX
  5
387
  8
0
  6
CONTINUOUS
 62
     7
 10
947.0191277901674
 20
665.0636310360842
 30
0.0
 70
    32
  0
VERTEX
  5
388
  8
0
  6
CONTINUOUS
 62
     7
 10
946.9887565398487
 20
665.0636310360842
 30
0.0
 70
    32
  0
VERTEX
  5
389
  8
0
  6
CONTINUOUS
 62
     7
 10
946.9588494458795
 20
665.0636310360841
 30
0.0
 70
    32
  0
VERTEX
  5
38A
  8
0
  6
CONTINUOUS
 62
     7
 10
946.9294043102541
 20
665.0636310360841
 30
0.0
 70
    32
  0
VERTEX
  5
38B
  8
0
  6
CONTINUOUS
 62
     7
 10
946.9004189381559
 20
665.0636310360843
 30
0.0
 70
    32
  0
VERTEX
  5
38C
  8
0
  6
CONTINUOUS
 62
     7
 10
946.8719040078366
 20
665.0636310360843
 30
0.0
 70
    32
  0
VERTEX
  5
38D
  8
0
  6
CONTINUOUS
 62
     7
 10
946.8439123527194
 20
665.0636310360843
 30
0.0
 70
    32
  0
VERTEX
  5
38E
  8
0
  6
CONTINUOUS
 62
     7
 10
946.8165054216959
 20
665.0636310360842
 30
0.0
 70
    32
  0
VERTEX
  5
38F
  8
0
  6
CONTINUOUS
 62
     7
 10
946.7897446636572
 20
665.0636310360842
 30
0.0
 70
    32
  0
VERTEX
  5
390
  8
0
  6
CONTINUOUS
 62
     7
 10
946.7636915274946
 20
665.0636310360844
 30
0.0
 70
    32
  0
VERTEX
  5
391
  8
0
  6
CONTINUOUS
 62
     7
 10
946.7384074620993
 20
665.0636310360841
 30
0.0
 70
    32
  0
VERTEX
  5
392
  8
0
  6
CONTINUOUS
 62
     7
 10
946.713953916363
 20
665.0636310360842
 30
0.0
 70
    32
  0
VERTEX
  5
393
  8
0
  6
CONTINUOUS
 62
     7
 10
946.6903923391768
 20
665.0636310360841
 30
0.0
 70
    32
  0
VERTEX
  5
394
  8
0
  6
CONTINUOUS
 62
     7
 10
946.667784179432
 20
665.0636310360842
 30
0.0
 70
    32
  0
VERTEX
  5
395
  8
0
  6
CONTINUOUS
 62
     7
 10
946.6461908860199
 20
665.0636310360842
 30
0.0
 70
    32
  0
VERTEX
  5
396
  8
0
  6
CONTINUOUS
 62
     7
 10
946.6256448209712
 20
665.0636310360842
 30
0.0
 70
    32
  0
VERTEX
  5
397
  8
0
  6
CONTINUOUS
 62
     7
 10
946.6060344578982
 20
665.0636310360842
 30
0.0
 70
    32
  0
VERTEX
  5
398
  8
0
  6
CONTINUOUS
 62
     7
 10
946.587203857105
 20
665.0636310360842
 30
0.0
 70
    32
  0
VERTEX
  5
399
  8
0
  6
CONTINUOUS
 62
     7
 10
946.5689970661354
 20
665.0636310360842
 30
0.0
 70
    32
  0
VERTEX
  5
39A
  8
0
  6
CONTINUOUS
 62
     7
 10
946.5512581325331
 20
665.0636310360842
 30
0.0
 70
    32
  0
VERTEX
  5
39B
  8
0
  6
CONTINUOUS
 62
     7
 10
946.5338311038431
 20
665.0636310360842
 30
0.0
 70
    32
  0
VERTEX
  5
39C
  8
0
  6
CONTINUOUS
 62
     7
 10
946.5165600276085
 20
665.0636310360842
 30
0.0
 70
    32
  0
SEQEND
  5
556
  8
0
  6
CONTINUOUS
 62
     7
  0
LINE
  5
EB
  8
0
  6
CONTINUOUS
 62
     7
 10
948.3165600276183
 20
666.0636310360832
 30
0.0
 11
948.3165600276325
 21
665.0636310360843
 31
0.0
  0
POLYLINE
  5
EC
  8
0
  6
CONTINUOUS
 62
     7
 66
     1
 10
0.0
 20
0.0
 30
0.0
  0
VERTEX
  5
39D
  8
0
  6
CONTINUOUS
 62
     7
 10
946.5165600276083
 20
703.8093953762648
 30
0.0
  0
VERTEX
  5
39E
  8
0
  6
CONTINUOUS
 62
     7
 10
946.5279712126281
 20
703.795886967075
 30
0.0
  0
VERTEX
  5
39F
  8
0
  6
CONTINUOUS
 62
     7
 10
946.5396973060275
 20
703.782740312969
 30
0.0
  0
VERTEX
  5
3A0
  8
0
  6
CONTINUOUS
 62
     7
 10
946.5518859311561
 20
703.7701298718173
 30
0.0
  0
VERTEX
  5
3A1
  8
0
  6
CONTINUOUS
 62
     7
 10
946.5645237422278
 20
703.758049875737
 30
0.0
  0
VERTEX
  5
3A2
  8
0
  6
CONTINUOUS
 62
     7
 10
946.5775908699326
 20
703.7464872529164
 30
0.0
  0
VERTEX
  5
3A3
  8
0
  6
CONTINUOUS
 62
     7
 10
946.591067444959
 20
703.7354289315435
 30
0.0
  0
VERTEX
  5
3A4
  8
0
  6
CONTINUOUS
 62
     7
 10
946.6049335979959
 20
703.7248618398058
 30
0.0
  0
VERTEX
  5
3A5
  8
0
  6
CONTINUOUS
 62
     7
 10
946.6191694597322
 20
703.7147729058909
 30
0.0
  0
VERTEX
  5
3A6
  8
0
  6
CONTINUOUS
 62
     7
 10
946.6337551608575
 20
703.7051490579869
 30
0.0
  0
VERTEX
  5
3A7
  8
0
  6
CONTINUOUS
 62
     7
 10
946.6486708320601
 20
703.6959772242814
 30
0.0
  0
VERTEX
  5
3A8
  8
0
  6
CONTINUOUS
 62
     7
 10
946.6638966040297
 20
703.6872443329623
 30
0.0
  0
VERTEX
  5
3A9
  8
0
  6
CONTINUOUS
 62
     7
 10
946.6794126074545
 20
703.6789373122173
 30
0.0
  0
VERTEX
  5
3AA
  8
0
  6
CONTINUOUS
 62
     7
 10
946.6951989730243
 20
703.6710430902341
 30
0.0
  0
VERTEX
  5
3AB
  8
0
  6
CONTINUOUS
 62
     7
 10
946.7112358314273
 20
703.6635485952006
 30
0.0
  0
VERTEX
  5
3AC
  8
0
  6
CONTINUOUS
 62
     7
 10
946.727503313353
 20
703.6564407553044
 30
0.0
  0
VERTEX
  5
3AD
  8
0
  6
CONTINUOUS
 62
     7
 10
946.7439815494903
 20
703.6497064987336
 30
0.0
  0
VERTEX
  5
3AE
  8
0
  6
CONTINUOUS
 62
     7
 10
946.7606506705283
 20
703.6433327536758
 30
0.0
  0
VERTEX
  5
3AF
  8
0
  6
CONTINUOUS
 62
     7
 10
946.777490807156
 20
703.6373064483188
 30
0.0
  0
VERTEX
  5
3B0
  8
0
  6
CONTINUOUS
 62
     7
 10
946.7944820900619
 20
703.6316145108501
 30
0.0
  0
VERTEX
  5
3B1
  8
0
  6
CONTINUOUS
 62
     7
 10
946.8116046499357
 20
703.6262438694578
 30
0.0
  0
VERTEX
  5
3B2
  8
0
  6
CONTINUOUS
 62
     7
 10
946.8288386174654
 20
703.6211814523296
 30
0.0
  0
VERTEX
  5
3B3
  8
0
  6
CONTINUOUS
 62
     7
 10
946.8461641237452
 20
703.6164141875871
 30
0.0
  0
VERTEX
  5
3B4
  8
0
  6
CONTINUOUS
 62
     7
 10
946.8635643850547
 20
703.6119284985948
 30
0.0
  0
VERTEX
  5
3B5
  8
0
  6
CONTINUOUS
 62
     7
 10
946.8810331339865
 20
703.6077090881773
 30
0.0
  0
VERTEX
  5
3B6
  8
0
  6
CONTINUOUS
 62
     7
 10
946.8985663418558
 20
703.6037402928889
 30
0.0
  0
VERTEX
  5
3B7
  8
0
  6
CONTINUOUS
 62
     7
 10
946.9161599799805
 20
703.6000064492843
 30
0.0
  0
VERTEX
  5
3B8
  8
0
  6
CONTINUOUS
 62
     7
 10
946.9338100196761
 20
703.5964918939178
 30
0.0
  0
VERTEX
  5
3B9
  8
0
  6
CONTINUOUS
 62
     7
 10
946.9515124322592
 20
703.5931809633437
 30
0.0
  0
VERTEX
  5
3BA
  8
0
  6
CONTINUOUS
 62
     7
 10
946.9692631890457
 20
703.5900579941165
 30
0.0
  0
VERTEX
  5
3BB
  8
0
  6
CONTINUOUS
 62
     7
 10
946.9870582613524
 20
703.5871073227908
 30
0.0
  0
VERTEX
  5
3BC
  8
0
  6
CONTINUOUS
 62
     7
 10
947.0048936204957
 20
703.5843132859209
 30
0.0
  0
VERTEX
  5
3BD
  8
0
  6
CONTINUOUS
 62
     7
 10
947.022765237792
 20
703.581660220061
 30
0.0
  0
VERTEX
  5
3BE
  8
0
  6
CONTINUOUS
 62
     7
 10
947.040669084557
 20
703.5791324617657
 30
0.0
  0
VERTEX
  5
3BF
  8
0
  6
CONTINUOUS
 62
     7
 10
947.0586011321079
 20
703.5767143475897
 30
0.0
  0
VERTEX
  5
3C0
  8
0
  6
CONTINUOUS
 62
     7
 10
947.0765573517604
 20
703.5743902140869
 30
0.0
  0
VERTEX
  5
3C1
  8
0
  6
CONTINUOUS
 62
     7
 10
947.0945337148314
 20
703.5721443978122
 30
0.0
  0
VERTEX
  5
3C2
  8
0
  6
CONTINUOUS
 62
     7
 10
947.1125261926368
 20
703.5699612353195
 30
0.0
  0
VERTEX
  5
3C3
  8
0
  6
CONTINUOUS
 62
     7
 10
947.130530756493
 20
703.5678250631638
 30
0.0
  0
VERTEX
  5
3C4
  8
0
  6
CONTINUOUS
 62
     7
 10
947.1485433777168
 20
703.5657202178991
 30
0.0
  0
VERTEX
  5
3C5
  8
0
  6
CONTINUOUS
 62
     7
 10
947.1665600276241
 20
703.5636310360801
 30
0.0
  0
SEQEND
  5
557
  8
0
  6
CONTINUOUS
 62
     7
  0
LINE
  5
ED
  8
0
  6
CONTINUOUS
 62
     7
 10
948.3165600276091
 20
721.0636310360877
 30
0.0
 11
948.3165600276095
 21
711.9552051938322
 31
0.0
  0
LINE
  5
EE
  8
0
  6
CONTINUOUS
 62
     7
 10
948.0165600276177
 20
703.5636310360799
 30
0.0
 11
947.1665600276241
 21
703.5636310360801
 31
0.0
  0
LINE
  5
EF
  8
0
  6
CONTINUOUS
 62
     7
 10
948.516560027609
 20
721.0636310360877
 30
0.0
 11
948.3165600276091
 21
721.0636310360877
 31
0.0
  0
LINE
  5
F0
  8
0
  6
CONTINUOUS
 62
     7
 10
948.5165600276182
 20
666.0636310360832
 30
0.0
 11
948.3165600276183
 21
666.0636310360832
 31
0.0
  0
LINE
  5
F1
  8
0
  6
CONTINUOUS
 62
     7
 10
948.3165600276152
 20
675.1720568783327
 30
0.0
 11
948.3165600276183
 21
666.0636310360832
 31
0.0
  0
POLYLINE
  5
F2
  8
0
  6
CONTINUOUS
 62
     7
 66
     1
 10
0.0
 20
0.0
 30
0.0
  0
VERTEX
  5
3C6
  8
0
  6
CONTINUOUS
 62
     7
 10
947.1665600276132
 20
683.5636310360803
 30
0.0
  0
VERTEX
  5
3C7
  8
0
  6
CONTINUOUS
 62
     7
 10
947.143674568983
 20
683.5613557130883
 30
0.0
  0
VERTEX
  5
3C8
  8
0
  6
CONTINUOUS
 62
     7
 10
947.120809104782
 20
683.5590394626139
 30
0.0
  0
VERTEX
  5
3C9
  8
0
  6
CONTINUOUS
 62
     7
 10
947.0979836294401
 20
683.556641357175
 30
0.0
  0
VERTEX
  5
3CA
  8
0
  6
CONTINUOUS
 62
     7
 10
947.0752181373866
 20
683.5541204692889
 30
0.0
  0
VERTEX
  5
3CB
  8
0
  6
CONTINUOUS
 62
     7
 10
947.0525326230513
 20
683.5514358714738
 30
0.0
  0
VERTEX
  5
3CC
  8
0
  6
CONTINUOUS
 62
     7
 10
947.0299470808636
 20
683.5485466362471
 30
0.0
  0
VERTEX
  5
3CD
  8
0
  6
CONTINUOUS
 62
     7
 10
947.0074815052528
 20
683.5454118361265
 30
0.0
  0
VERTEX
  5
3CE
  8
0
  6
CONTINUOUS
 62
     7
 10
946.9851558906489
 20
683.5419905436298
 30
0.0
  0
VERTEX
  5
3CF
  8
0
  6
CONTINUOUS
 62
     7
 10
946.9629902314807
 20
683.5382418312747
 30
0.0
  0
VERTEX
  5
3D0
  8
0
  6
CONTINUOUS
 62
     7
 10
946.9410045221783
 20
683.5341247715787
 30
0.0
  0
VERTEX
  5
3D1
  8
0
  6
CONTINUOUS
 62
     7
 10
946.9192187571708
 20
683.5295984370596
 30
0.0
  0
VERTEX
  5
3D2
  8
0
  6
CONTINUOUS
 62
     7
 10
946.8976529308877
 20
683.5246219002353
 30
0.0
  0
VERTEX
  5
3D3
  8
0
  6
CONTINUOUS
 62
     7
 10
946.8763270377592
 20
683.5191542336231
 30
0.0
  0
VERTEX
  5
3D4
  8
0
  6
CONTINUOUS
 62
     7
 10
946.855261072214
 20
683.5131545097411
 30
0.0
  0
VERTEX
  5
3D5
  8
0
  6
CONTINUOUS
 62
     7
 10
946.8344750286818
 20
683.5065818011064
 30
0.0
  0
VERTEX
  5
3D6
  8
0
  6
CONTINUOUS
 62
     7
 10
946.8139889015926
 20
683.4993951802376
 30
0.0
  0
VERTEX
  5
3D7
  8
0
  6
CONTINUOUS
 62
     7
 10
946.7938186988536
 20
683.491561879839
 30
0.0
  0
VERTEX
  5
3D8
  8
0
  6
CONTINUOUS
 62
     7
 10
946.7739544537127
 20
683.4831023012969
 30
0.0
  0
VERTEX
  5
3D9
  8
0
  6
CONTINUOUS
 62
     7
 10
946.75437579486
 20
683.474058143548
 30
0.0
  0
VERTEX
  5
3DA
  8
0
  6
CONTINUOUS
 62
     7
 10
946.7350623232745
 20
683.4644711622503
 30
0.0
  0
VERTEX
  5
3DB
  8
0
  6
CONTINUOUS
 62
     7
 10
946.7159936399356
 20
683.4543831130609
 30
0.0
  0
VERTEX
  5
3DC
  8
0
  6
CONTINUOUS
 62
     7
 10
946.6971493458229
 20
683.4438357516378
 30
0.0
  0
VERTEX
  5
3DD
  8
0
  6
CONTINUOUS
 62
     7
 10
946.6785090419155
 20
683.4328708336384
 30
0.0
  0
VERTEX
  5
3DE
  8
0
  6
CONTINUOUS
 62
     7
 10
946.6600523291934
 20
683.4215301147203
 30
0.0
  0
VERTEX
  5
3DF
  8
0
  6
CONTINUOUS
 62
     7
 10
946.6417588086355
 20
683.4098553505414
 30
0.0
  0
VERTEX
  5
3E0
  8
0
  6
CONTINUOUS
 62
     7
 10
946.6236080812214
 20
683.3978882967591
 30
0.0
  0
VERTEX
  5
3E1
  8
0
  6
CONTINUOUS
 62
     7
 10
946.6055797479308
 20
683.3856707090312
 30
0.0
  0
VERTEX
  5
3E2
  8
0
  6
CONTINUOUS
 62
     7
 10
946.5876534097431
 20
683.3732443430149
 30
0.0
  0
VERTEX
  5
3E3
  8
0
  6
CONTINUOUS
 62
     7
 10
946.5698086676374
 20
683.3606509543683
 30
0.0
  0
VERTEX
  5
3E4
  8
0
  6
CONTINUOUS
 62
     7
 10
946.5520251225935
 20
683.3479322987489
 30
0.0
  0
VERTEX
  5
3E5
  8
0
  6
CONTINUOUS
 62
     7
 10
946.5342823755907
 20
683.3351301318141
 30
0.0
  0
VERTEX
  5
3E6
  8
0
  6
CONTINUOUS
 62
     7
 10
946.5165600276083
 20
683.3222862092218
 30
0.0
  0
SEQEND
  5
558
  8
0
  6
CONTINUOUS
 62
     7
  0
LINE
  5
F3
  8
0
  6
CONTINUOUS
 62
     7
 10
947.1665600276132
 20
683.5636310360803
 30
0.0
 11
948.0165600276176
 21
683.5636310360832
 31
0.0
  0
LINE
  5
F4
  8
0
  6
CONTINUOUS
 62
     7
 10
948.5165600276088
 20
722.0636310360869
 30
0.0
 11
948.3165600276088
 21
722.0636310360869
 31
0.0
  0
LINE
  5
F5
  8
0
  6
CONTINUOUS
 62
     7
 10
948.5165600276324
 20
665.0636310360843
 30
0.0
 11
948.3165600276325
 21
665.0636310360843
 31
0.0
  0
LINE
  5
F6
  8
0
  6
CONTINUOUS
 62
     7
 10
946.5165600276097
 20
1520.063631036081
 30
0.0
 11
948.5165600276159
 21
1520.063631036081
 31
0.0
  0
LINE
  5
F7
  8
0
  6
CONTINUOUS
 62
     7
 10
948.5165600276159
 20
1507.063631036079
 30
0.0
 11
946.5165600276097
 21
1507.063631036082
 31
0.0
  0
LINE
  5
F8
  8
0
  6
CONTINUOUS
 62
     7
 10
947.2452774824304
 20
1506.11363103608
 30
0.0
 11
947.2452774824301
 21
1507.063631036082
 31
0.0
  0
LINE
  5
F9
  8
0
  6
CONTINUOUS
 62
     7
 10
947.245277482425
 20
1520.063631036081
 30
0.0
 11
947.2452774824246
 21
1521.01363103608
 31
0.0
  0
LINE
  5
FA
  8
0
  6
CONTINUOUS
 62
     7
 10
947.2452774824304
 20
1506.11363103608
 30
0.0
 11
946.5165600276097
 21
1506.113631036079
 31
0.0
  0
LINE
  5
FB
  8
0
  6
CONTINUOUS
 62
     7
 10
947.2452774824246
 20
1521.01363103608
 30
0.0
 11
946.5165600276097
 21
1521.01363103608
 31
0.0
  0
LINE
  5
FC
  8
0
  6
CONTINUOUS
 62
     7
 10
947.3066469780256
 20
1506.113631036082
 30
0.0
 11
947.3066469780259
 21
1507.063631036082
 31
0.0
  0
LINE
  5
FD
  8
0
  6
CONTINUOUS
 62
     7
 10
947.3066469780304
 20
1520.063631036081
 30
0.0
 11
947.3066469780307
 21
1521.013631036079
 31
0.0
  0
LINE
  5
FE
  8
0
  6
CONTINUOUS
 62
     7
 10
947.3066469780256
 20
1506.113631036082
 30
0.0
 11
947.2452774824304
 21
1506.11363103608
 31
0.0
  0
LINE
  5
FF
  8
0
  6
CONTINUOUS
 62
     7
 10
947.3066469780307
 20
1521.013631036079
 30
0.0
 11
947.2452774824246
 21
1521.01363103608
 31
0.0
  0
LINE
  5
100
  8
0
  6
CONTINUOUS
 62
     7
 10
946.5165600276097
 20
2286.06363103608
 30
0.0
 11
948.5165600276097
 21
2286.063631036081
 31
0.0
  0
LINE
  5
101
  8
0
  6
CONTINUOUS
 62
     7
 10
948.5165600276097
 20
2273.063631036082
 30
0.0
 11
946.5165600276097
 21
2273.063631036082
 31
0.0
  0
LINE
  5
102
  8
0
  6
CONTINUOUS
 62
     7
 10
947.2452774824304
 20
2272.113631036079
 30
0.0
 11
947.24527748243
 21
2273.063631036082
 31
0.0
  0
LINE
  5
103
  8
0
  6
CONTINUOUS
 62
     7
 10
947.245277482425
 20
2286.063631036081
 30
0.0
 11
947.2452774824246
 21
2287.01363103608
 31
0.0
  0
LINE
  5
104
  8
0
  6
CONTINUOUS
 62
     7
 10
947.2452774824246
 20
2287.01363103608
 30
0.0
 11
946.5165600276097
 21
2287.01363103608
 31
0.0
  0
LINE
  5
105
  8
0
  6
CONTINUOUS
 62
     7
 10
947.2452774824304
 20
2272.113631036079
 30
0.0
 11
946.5165600276097
 21
2272.113631036079
 31
0.0
  0
LINE
  5
106
  8
0
  6
CONTINUOUS
 62
     7
 10
947.3066469780256
 20
2272.113631036082
 30
0.0
 11
947.3066469780259
 21
2273.063631036082
 31
0.0
  0
LINE
  5
107
  8
0
  6
CONTINUOUS
 62
     7
 10
947.3066469780304
 20
2286.063631036081
 30
0.0
 11
947.3066469780307
 21
2287.013631036079
 31
0.0
  0
LINE
  5
108
  8
0
  6
CONTINUOUS
 62
     7
 10
947.3066469780307
 20
2287.013631036079
 30
0.0
 11
947.2452774824246
 21
2287.01363103608
 31
0.0
  0
LINE
  5
109
  8
0
  6
CONTINUOUS
 62
     7
 10
947.3066469780256
 20
2272.113631036082
 30
0.0
 11
947.2452774824304
 21
2272.113631036079
 31
0.0
  0
LINE
  5
10A
  8
0
  6
CONTINUOUS
 62
     7
 10
946.5165600276097
 20
700.0636310360803
 30
0.0
 11
948.5165600276159
 21
700.0636310360806
 31
0.0
  0
LINE
  5
10B
  8
0
  6
CONTINUOUS
 62
     7
 10
948.5165600276159
 20
687.063631036079
 30
0.0
 11
946.5165600276097
 21
687.0636310360821
 31
0.0
  0
LINE
  5
10C
  8
0
  6
CONTINUOUS
 62
     7
 10
947.2452774824304
 20
686.1136310360795
 30
0.0
 11
947.24527748243
 21
687.0636310360821
 31
0.0
  0
LINE
  5
10D
  8
0
  6
CONTINUOUS
 62
     7
 10
947.245277482425
 20
700.0636310360808
 30
0.0
 11
947.2452774824246
 21
701.0136310360803
 31
0.0
  0
LINE
  5
10E
  8
0
  6
CONTINUOUS
 62
     7
 10
947.2452774824246
 20
701.0136310360803
 30
0.0
 11
946.5165600276084
 21
701.0136310360801
 31
0.0
  0
LINE
  5
10F
  8
0
  6
CONTINUOUS
 62
     7
 10
947.2452774824304
 20
686.1136310360795
 30
0.0
 11
946.5165600276084
 21
686.1136310360791
 31
0.0
  0
LINE
  5
110
  8
0
  6
CONTINUOUS
 62
     7
 10
947.3066469780256
 20
686.1136310360819
 30
0.0
 11
947.3066469780259
 21
687.0636310360821
 31
0.0
  0
LINE
  5
111
  8
0
  6
CONTINUOUS
 62
     7
 10
947.3066469780304
 20
700.0636310360809
 30
0.0
 11
947.3066469780307
 21
701.0136310360786
 31
0.0
  0
LINE
  5
112
  8
0
  6
CONTINUOUS
 62
     7
 10
947.3066469780307
 20
701.0136310360786
 30
0.0
 11
947.2452774824246
 21
701.0136310360803
 31
0.0
  0
LINE
  5
113
  8
0
  6
CONTINUOUS
 62
     7
 10
947.3066469780256
 20
686.1136310360819
 30
0.0
 11
947.2452774824304
 21
686.1136310360795
 31
0.0
  0
LINE
  5
114
  8
0
  6
CONTINUOUS
 62
     7
 10
948.0165600276229
 20
686.0886310360798
 30
0.0
 11
947.7049942247858
 21
686.0886310360797
 31
0.0
  0
LINE
  5
115
  8
0
  6
CONTINUOUS
 62
     7
 10
947.7049942247887
 20
701.0386310360798
 30
0.0
 11
947.7049942247885
 21
700.0636310360812
 31
0.0
  0
LINE
  5
116
  8
0
  6
CONTINUOUS
 62
     7
 10
947.7049942247859
 20
687.0636310360821
 30
0.0
 11
947.7049942247858
 21
686.0886310360797
 31
0.0
  0
LINE
  5
117
  8
0
  6
CONTINUOUS
 62
     7
 10
948.0165600276076
 20
701.0386310360799
 30
0.0
 11
947.7049942247887
 21
701.0386310360798
 31
0.0
  0
LINE
  5
118
  8
0
  6
CONTINUOUS
 62
     7
 10
947.7049942247858
 20
686.0886310360797
 30
0.0
 11
947.6658516303261
 21
686.0886310360797
 31
0.0
  0
LINE
  5
119
  8
0
  6
CONTINUOUS
 62
     7
 10
947.7049942247887
 20
701.0386310360798
 30
0.0
 11
947.665851630329
 21
701.0386310360798
 31
0.0
  0
LINE
  5
11A
  8
0
  6
CONTINUOUS
 62
     7
 10
948.0165600276229
 20
2272.088631036079
 30
0.0
 11
947.7049942247858
 21
2272.088631036079
 31
0.0
  0
LINE
  5
11B
  8
0
  6
CONTINUOUS
 62
     7
 10
947.7049942247887
 20
2287.03863103608
 30
0.0
 11
947.7049942247885
 21
2286.063631036081
 31
0.0
  0
LINE
  5
11C
  8
0
  6
CONTINUOUS
 62
     7
 10
947.7049942247859
 20
2273.063631036082
 30
0.0
 11
947.7049942247858
 21
2272.088631036079
 31
0.0
  0
LINE
  5
11D
  8
0
  6
CONTINUOUS
 62
     7
 10
948.0165600276076
 20
2287.03863103608
 30
0.0
 11
947.7049942247887
 21
2287.03863103608
 31
0.0
  0
LINE
  5
11E
  8
0
  6
CONTINUOUS
 62
     7
 10
947.7049942247858
 20
2272.088631036079
 30
0.0
 11
947.6658516303261
 21
2272.088631036079
 31
0.0
  0
LINE
  5
11F
  8
0
  6
CONTINUOUS
 62
     7
 10
947.7049942247887
 20
2287.03863103608
 30
0.0
 11
947.665851630329
 21
2287.03863103608
 31
0.0
  0
LINE
  5
120
  8
0
  6
CONTINUOUS
 62
     7
 10
948.016560027623
 20
1506.08863103608
 30
0.0
 11
947.7049942247858
 21
1506.08863103608
 31
0.0
  0
LINE
  5
121
  8
0
  6
CONTINUOUS
 62
     7
 10
947.7049942247887
 20
1521.03863103608
 30
0.0
 11
947.7049942247885
 21
1520.063631036081
 31
0.0
  0
LINE
  5
122
  8
0
  6
CONTINUOUS
 62
     7
 10
947.7049942247859
 20
1507.063631036082
 30
0.0
 11
947.7049942247858
 21
1506.08863103608
 31
0.0
  0
LINE
  5
123
  8
0
  6
CONTINUOUS
 62
     7
 10
948.0165600276076
 20
1521.03863103608
 30
0.0
 11
947.7049942247887
 21
1521.03863103608
 31
0.0
  0
LINE
  5
124
  8
0
  6
CONTINUOUS
 62
     7
 10
947.7049942247858
 20
1506.08863103608
 30
0.0
 11
947.6658516303261
 21
1506.08863103608
 31
0.0
  0
LINE
  5
125
  8
0
  6
CONTINUOUS
 62
     7
 10
947.7049942247887
 20
1521.03863103608
 30
0.0
 11
947.665851630329
 21
1521.03863103608
 31
0.0
  0
LINE
  5
126
  8
0
  6
CONTINUOUS
 62
     7
 10
946.5165600276096
 20
2248.563631036082
 30
0.0
 11
948.5165600276096
 21
2248.563631036082
 31
0.0
  0
LINE
  5
127
  8
0
  6
CONTINUOUS
 62
     7
 10
946.5165600276096
 20
780.563631036082
 30
0.0
 11
948.5165600276096
 21
780.563631036082
 31
0.0
  0
LINE
  5
128
  8
0
  6
CONTINUOUS
 62
     7
 10
966.5165600276096
 20
2359.563631036082
 30
0.0
 11
966.5165600276096
 21
613.5636310360823
 31
0.0
  0
LINE
  5
129
  8
0
  6
CONTINUOUS
 62
     7
 10
966.5165600276096
 20
2359.563631036082
 30
0.0
 11
948.5165600276096
 21
2359.563631036082
 31
0.0
  0
LINE
  5
12A
  8
0
  6
CONTINUOUS
 62
     7
 10
948.5165600276096
 20
2359.563631036082
 30
0.0
 11
948.5165600276096
 21
613.5636310360823
 31
0.0
  0
LINE
  5
12B
  8
0
  6
CONTINUOUS
 62
     7
 10
966.5165600276096
 20
613.5636310360823
 30
0.0
 11
948.5165600276096
 21
613.5636310360823
 31
0.0
  0
LINE
  5
12C
  8
0
  6
CONTINUOUS
 62
     7
 10
946.5165600276096
 20
2361.563631036082
 30
0.0
 11
816.5165600276096
 21
2361.563631036082
 31
0.0
  0
LINE
  5
12D
  8
0
  6
CONTINUOUS
 62
     7
 10
946.5165600276096
 20
2361.563631036082
 30
0.0
 11
946.5165600276096
 21
611.5636310360824
 31
0.0
  0
LINE
  5
12E
  8
0
  6
CONTINUOUS
 62
     7
 10
816.5165600276096
 20
2361.563631036082
 30
0.0
 11
816.5165600276096
 21
611.5636310360824
 31
0.0
  0
LINE
  5
12F
  8
0
  6
CONTINUOUS
 62
     7
 10
946.5165600276096
 20
611.5636310360824
 30
0.0
 11
816.5165600276096
 21
611.5636310360824
 31
0.0
  0
LINE
  5
130
  8
0
  6
CONTINUOUS
 62
     8
 10
948.3165600276091
 20
2307.063631036088
 30
0.0
 11
946.5165600276094
 21
2307.063631036089
 31
0.0
  0
LINE
  5
131
  8
0
  6
CONTINUOUS
 62
     8
 10
948.3165600276183
 20
2252.063631036083
 30
0.0
 11
946.5165600276094
 21
2252.063631036084
 31
0.0
  0
LINE
  5
132
  8
0
  6
CONTINUOUS
 62
     8
 10
947.1665600276181
 20
2287.938631036081
 30
0.0
 11
947.1665600276153
 21
2289.563631036078
 31
0.0
  0
LINE
  5
133
  8
0
  6
CONTINUOUS
 62
     8
 10
947.1665600276306
 20
2269.563631036082
 30
0.0
 11
947.166560027618
 21
2271.188631036081
 31
0.0
  0
LINE
  5
134
  8
0
  6
CONTINUOUS
 62
     8
 10
948.3165600276091
 20
1541.063631036088
 30
0.0
 11
946.5165600276094
 21
1541.063631036089
 31
0.0
  0
LINE
  5
135
  8
0
  6
CONTINUOUS
 62
     8
 10
948.3165600276183
 20
1486.063631036083
 30
0.0
 11
946.5165600276094
 21
1486.063631036084
 31
0.0
  0
LINE
  5
136
  8
0
  6
CONTINUOUS
 62
     8
 10
947.1665600276181
 20
1521.938631036081
 30
0.0
 11
947.1665600276153
 21
1523.563631036078
 31
0.0
  0
LINE
  5
137
  8
0
  6
CONTINUOUS
 62
     8
 10
947.1665600276306
 20
1503.563631036082
 30
0.0
 11
947.166560027618
 21
1505.188631036082
 31
0.0
  0
LINE
  5
138
  8
0
  6
CONTINUOUS
 62
     8
 10
948.3165600276091
 20
721.0636310360877
 30
0.0
 11
946.5165600276094
 21
721.0636310360884
 31
0.0
  0
LINE
  5
139
  8
0
  6
CONTINUOUS
 62
     8
 10
948.3165600276183
 20
666.0636310360832
 30
0.0
 11
946.5165600276094
 21
666.063631036084
 31
0.0
  0
LINE
  5
13A
  8
0
  6
CONTINUOUS
 62
     8
 10
947.1665600276181
 20
701.9386310360806
 30
0.0
 11
947.1665600276153
 21
703.5636310360778
 31
0.0
  0
LINE
  5
13B
  8
0
  6
CONTINUOUS
 62
     8
 10
947.1665600276306
 20
683.5636310360818
 30
0.0
 11
947.166560027618
 21
685.1886310360817
 31
0.0
  0
LINE
  5
13C
  8
0
  6
CONTINUOUS
 62
     7
 10
3873.241066353337
 20
1738.063631036082
 30
0.0
 11
3875.241066353336
 21
1738.063631036082
 31
0.0
  0
LINE
  5
13D
  8
0
  6
CONTINUOUS
 62
     7
 10
3875.241066353336
 20
1773.063631036082
 30
0.0
 11
3873.241066353337
 21
1773.063631036082
 31
0.0
  0
LINE
  5
13E
  8
0
  6
CONTINUOUS
 62
     7
 10
3875.241066353336
 20
2290.563631036082
 30
0.0
 11
3873.241066353337
 21
2290.563631036082
 31
0.0
  0
LINE
  5
13F
  8
0
  6
CONTINUOUS
 62
     7
 10
3873.241066353337
 20
2228.563631036082
 30
0.0
 11
3875.241066353336
 21
2228.563631036082
 31
0.0
  0
LINE
  5
140
  8
0
  6
CONTINUOUS
 62
     7
 10
3875.241066353336
 20
800.563631036082
 30
0.0
 11
3873.241066353337
 21
800.563631036082
 31
0.0
  0
LINE
  5
141
  8
0
  6
CONTINUOUS
 62
     7
 10
3873.241066353337
 20
700.5636310360821
 30
0.0
 11
3875.241066353336
 21
700.5636310360821
 31
0.0
  0
LINE
  5
142
  8
0
  6
CONTINUOUS
 62
     7
 10
3873.241066353337
 20
1256.063631036082
 30
0.0
 11
3875.241066353336
 21
1256.063631036082
 31
0.0
  0
LINE
  5
143
  8
0
  6
CONTINUOUS
 62
     7
 10
3875.241066353336
 20
1291.063631036082
 30
0.0
 11
3873.241066353337
 21
1291.063631036082
 31
0.0
  0
LINE
  5
144
  8
0
  6
CONTINUOUS
 62
     7
 10
3873.441066353321
 20
2308.063631036082
 30
0.0
 11
3873.441066353331
 21
2307.063631036081
 31
0.0
  0
POLYLINE
  5
145
  8
0
  6
CONTINUOUS
 62
     7
 10
0.0
 20
0.0
 30
0.0
 66
     1
 70
     8
  0
VERTEX
  5
3E7
  8
0
  6
CONTINUOUS
 62
     7
 10
3873.441066353321
 20
2308.063631036082
 30
0.0
 70
    32
  0
VERTEX
  5
3E8
  8
0
  6
CONTINUOUS
 62
     7
 10
3873.481514832019
 20
2308.063631036082
 30
0.0
 70
    32
  0
VERTEX
  5
3E9
  8
0
  6
CONTINUOUS
 62
     7
 10
3873.52194664432
 20
2308.063631036081
 30
0.0
 70
    32
  0
VERTEX
  5
3EA
  8
0
  6
CONTINUOUS
 62
     7
 10
3873.562345123833
 20
2308.063631036082
 30
0.0
 70
    32
  0
VERTEX
  5
3EB
  8
0
  6
CONTINUOUS
 62
     7
 10
3873.60269360416
 20
2308.063631036081
 30
0.0
 70
    32
  0
VERTEX
  5
3EC
  8
0
  6
CONTINUOUS
 62
     7
 10
3873.64297541891
 20
2308.063631036082
 30
0.0
 70
    32
  0
VERTEX
  5
3ED
  8
0
  6
CONTINUOUS
 62
     7
 10
3873.683173901684
 20
2308.063631036081
 30
0.0
 70
    32
  0
VERTEX
  5
3EE
  8
0
  6
CONTINUOUS
 62
     7
 10
3873.723272386091
 20
2308.063631036082
 30
0.0
 70
    32
  0
VERTEX
  5
3EF
  8
0
  6
CONTINUOUS
 62
     7
 10
3873.763254205733
 20
2308.063631036082
 30
0.0
 70
    32
  0
VERTEX
  5
3F0
  8
0
  6
CONTINUOUS
 62
     7
 10
3873.803102694216
 20
2308.063631036082
 30
0.0
 70
    32
  0
VERTEX
  5
3F1
  8
0
  6
CONTINUOUS
 62
     7
 10
3873.842801185148
 20
2308.063631036082
 30
0.0
 70
    32
  0
VERTEX
  5
3F2
  8
0
  6
CONTINUOUS
 62
     7
 10
3873.882333012129
 20
2308.063631036082
 30
0.0
 70
    32
  0
VERTEX
  5
3F3
  8
0
  6
CONTINUOUS
 62
     7
 10
3873.921681508768
 20
2308.063631036082
 30
0.0
 70
    32
  0
VERTEX
  5
3F4
  8
0
  6
CONTINUOUS
 62
     7
 10
3873.960830008669
 20
2308.063631036082
 30
0.0
 70
    32
  0
VERTEX
  5
3F5
  8
0
  6
CONTINUOUS
 62
     7
 10
3873.999761845439
 20
2308.063631036082
 30
0.0
 70
    32
  0
VERTEX
  5
3F6
  8
0
  6
CONTINUOUS
 62
     7
 10
3874.03846035268
 20
2308.063631036082
 30
0.0
 70
    32
  0
VERTEX
  5
3F7
  8
0
  6
CONTINUOUS
 62
     7
 10
3874.076908863999
 20
2308.063631036082
 30
0.0
 70
    32
  0
VERTEX
  5
3F8
  8
0
  6
CONTINUOUS
 62
     7
 10
3874.115090713001
 20
2308.063631036082
 30
0.0
 70
    32
  0
VERTEX
  5
3F9
  8
0
  6
CONTINUOUS
 62
     7
 10
3874.152989233292
 20
2308.063631036082
 30
0.0
 70
    32
  0
VERTEX
  5
3FA
  8
0
  6
CONTINUOUS
 62
     7
 10
3874.190587758233
 20
2308.063631036081
 30
0.0
 70
    32
  0
VERTEX
  5
3FB
  8
0
  6
CONTINUOUS
 62
     7
 10
3874.227869608727
 20
2308.063631036082
 30
0.0
 70
    32
  0
VERTEX
  5
3FC
  8
0
  6
CONTINUOUS
 62
     7
 10
3874.264818087469
 20
2308.063631036082
 30
0.0
 70
    32
  0
VERTEX
  5
3FD
  8
0
  6
CONTINUOUS
 62
     7
 10
3874.301416495712
 20
2308.063631036082
 30
0.0
 70
    32
  0
VERTEX
  5
3FE
  8
0
  6
CONTINUOUS
 62
     7
 10
3874.337648134706
 20
2308.063631036082
 30
0.0
 70
    32
  0
VERTEX
  5
3FF
  8
0
  6
CONTINUOUS
 62
     7
 10
3874.373496305705
 20
2308.063631036081
 30
0.0
 70
    32
  0
VERTEX
  5
400
  8
0
  6
CONTINUOUS
 62
     7
 10
3874.40894430996
 20
2308.063631036082
 30
0.0
 70
    32
  0
VERTEX
  5
401
  8
0
  6
CONTINUOUS
 62
     7
 10
3874.443975448724
 20
2308.063631036081
 30
0.0
 70
    32
  0
VERTEX
  5
402
  8
0
  6
CONTINUOUS
 62
     7
 10
3874.478573023249
 20
2308.063631036082
 30
0.0
 70
    32
  0
VERTEX
  5
403
  8
0
  6
CONTINUOUS
 62
     7
 10
3874.512720334787
 20
2308.063631036082
 30
0.0
 70
    32
  0
VERTEX
  5
404
  8
0
  6
CONTINUOUS
 62
     7
 10
3874.546400717184
 20
2308.063631036081
 30
0.0
 70
    32
  0
VERTEX
  5
405
  8
0
  6
CONTINUOUS
 62
     7
 10
3874.579603063728
 20
2308.063631036082
 30
0.0
 70
    32
  0
VERTEX
  5
406
  8
0
  6
CONTINUOUS
 62
     7
 10
3874.612328065885
 20
2308.063631036082
 30
0.0
 70
    32
  0
VERTEX
  5
407
  8
0
  6
CONTINUOUS
 62
     7
 10
3874.644577921664
 20
2308.063631036082
 30
0.0
 70
    32
  0
VERTEX
  5
408
  8
0
  6
CONTINUOUS
 62
     7
 10
3874.676354829068
 20
2308.063631036082
 30
0.0
 70
    32
  0
VERTEX
  5
409
  8
0
  6
CONTINUOUS
 62
     7
 10
3874.707660986103
 20
2308.063631036081
 30
0.0
 70
    32
  0
VERTEX
  5
40A
  8
0
  6
CONTINUOUS
 62
     7
 10
3874.738498590778
 20
2308.063631036082
 30
0.0
 70
    32
  0
VERTEX
  5
40B
  8
0
  6
CONTINUOUS
 62
     7
 10
3874.768869841097
 20
2308.063631036082
 30
0.0
 70
    32
  0
VERTEX
  5
40C
  8
0
  6
CONTINUOUS
 62
     7
 10
3874.798776935065
 20
2308.063631036082
 30
0.0
 70
    32
  0
VERTEX
  5
40D
  8
0
  6
CONTINUOUS
 62
     7
 10
3874.828222070691
 20
2308.063631036082
 30
0.0
 70
    32
  0
VERTEX
  5
40E
  8
0
  6
CONTINUOUS
 62
     7
 10
3874.857207442789
 20
2308.063631036082
 30
0.0
 70
    32
  0
VERTEX
  5
40F
  8
0
  6
CONTINUOUS
 62
     7
 10
3874.885722373108
 20
2308.063631036081
 30
0.0
 70
    32
  0
VERTEX
  5
410
  8
0
  6
CONTINUOUS
 62
     7
 10
3874.913714028226
 20
2308.063631036082
 30
0.0
 70
    32
  0
VERTEX
  5
411
  8
0
  6
CONTINUOUS
 62
     7
 10
3874.941120959249
 20
2308.063631036082
 30
0.0
 70
    32
  0
VERTEX
  5
412
  8
0
  6
CONTINUOUS
 62
     7
 10
3874.967881717287
 20
2308.063631036082
 30
0.0
 70
    32
  0
VERTEX
  5
413
  8
0
  6
CONTINUOUS
 62
     7
 10
3874.993934853449
 20
2308.063631036082
 30
0.0
 70
    32
  0
VERTEX
  5
414
  8
0
  6
CONTINUOUS
 62
     7
 10
3875.019218918845
 20
2308.063631036082
 30
0.0
 70
    32
  0
VERTEX
  5
415
  8
0
  6
CONTINUOUS
 62
     7
 10
3875.04367246458
 20
2308.063631036082
 30
0.0
 70
    32
  0
VERTEX
  5
416
  8
0
  6
CONTINUOUS
 62
     7
 10
3875.067234041766
 20
2308.063631036082
 30
0.0
 70
    32
  0
VERTEX
  5
417
  8
0
  6
CONTINUOUS
 62
     7
 10
3875.089842201511
 20
2308.063631036082
 30
0.0
 70
    32
  0
VERTEX
  5
418
  8
0
  6
CONTINUOUS
 62
     7
 10
3875.111435494924
 20
2308.063631036082
 30
0.0
 70
    32
  0
VERTEX
  5
419
  8
0
  6
CONTINUOUS
 62
     7
 10
3875.131981559973
 20
2308.063631036082
 30
0.0
 70
    32
  0
VERTEX
  5
41A
  8
0
  6
CONTINUOUS
 62
     7
 10
3875.151591923046
 20
2308.063631036082
 30
0.0
 70
    32
  0
VERTEX
  5
41B
  8
0
  6
CONTINUOUS
 62
     7
 10
3875.170422523839
 20
2308.063631036082
 30
0.0
 70
    32
  0
VERTEX
  5
41C
  8
0
  6
CONTINUOUS
 62
     7
 10
3875.188629314809
 20
2308.063631036082
 30
0.0
 70
    32
  0
VERTEX
  5
41D
  8
0
  6
CONTINUOUS
 62
     7
 10
3875.20636824841
 20
2308.063631036082
 30
0.0
 70
    32
  0
VERTEX
  5
41E
  8
0
  6
CONTINUOUS
 62
     7
 10
3875.223795277101
 20
2308.063631036082
 30
0.0
 70
    32
  0
VERTEX
  5
41F
  8
0
  6
CONTINUOUS
 62
     7
 10
3875.241066353336
 20
2308.063631036082
 30
0.0
 70
    32
  0
SEQEND
  5
559
  8
0
  6
CONTINUOUS
 62
     7
  0
LINE
  5
146
  8
0
  6
CONTINUOUS
 62
     7
 10
3873.241066353331
 20
2307.063631036081
 30
0.0
 11
3873.441066353331
 21
2307.063631036081
 31
0.0
  0
LINE
  5
147
  8
0
  6
CONTINUOUS
 62
     7
 10
3873.441066353321
 20
2308.063631036082
 30
0.0
 11
3873.241066353321
 21
2308.063631036082
 31
0.0
  0
POLYLINE
  5
148
  8
0
  6
CONTINUOUS
 62
     7
 10
0.0
 20
0.0
 30
0.0
 66
     1
 70
     8
  0
VERTEX
  5
420
  8
0
  6
CONTINUOUS
 62
     7
 10
3875.241066353337
 20
1485.063631036085
 30
0.0
 70
    32
  0
VERTEX
  5
421
  8
0
  6
CONTINUOUS
 62
     7
 10
3875.223797527957
 20
1485.063631036085
 30
0.0
 70
    32
  0
VERTEX
  5
422
  8
0
  6
CONTINUOUS
 62
     7
 10
3875.206372444487
 20
1485.063631036085
 30
0.0
 70
    32
  0
VERTEX
  5
423
  8
0
  6
CONTINUOUS
 62
     7
 10
3875.188634844834
 20
1485.063631036086
 30
0.0
 70
    32
  0
VERTEX
  5
424
  8
0
  6
CONTINUOUS
 62
     7
 10
3875.170428470905
 20
1485.063631036085
 30
0.0
 70
    32
  0
VERTEX
  5
425
  8
0
  6
CONTINUOUS
 62
     7
 10
3875.151597064613
 20
1485.063631036086
 30
0.0
 70
    32
  0
VERTEX
  5
426
  8
0
  6
CONTINUOUS
 62
     7
 10
3875.131984367862
 20
1485.063631036085
 30
0.0
 70
    32
  0
VERTEX
  5
427
  8
0
  6
CONTINUOUS
 62
     7
 10
3875.111434144574
 20
1485.063631036085
 30
0.0
 70
    32
  0
VERTEX
  5
428
  8
0
  6
CONTINUOUS
 62
     7
 10
3875.089836356954
 20
1485.063631036086
 30
0.0
 70
    32
  0
VERTEX
  5
429
  8
0
  6
CONTINUOUS
 62
     7
 10
3875.067224561633
 20
1485.063631036085
 30
0.0
 70
    32
  0
VERTEX
  5
42A
  8
0
  6
CONTINUOUS
 62
     7
 10
3875.043660132852
 20
1485.063631036085
 30
0.0
 70
    32
  0
VERTEX
  5
42B
  8
0
  6
CONTINUOUS
 62
     7
 10
3875.019204444852
 20
1485.063631036085
 30
0.0
 70
    32
  0
VERTEX
  5
42C
  8
0
  6
CONTINUOUS
 62
     7
 10
3874.993918871873
 20
1485.063631036085
 30
0.0
 70
    32
  0
VERTEX
  5
42D
  8
0
  6
CONTINUOUS
 62
     7
 10
3874.967864788158
 20
1485.063631036085
 30
0.0
 70
    32
  0
VERTEX
  5
42E
  8
0
  6
CONTINUOUS
 62
     7
 10
3874.941103567947
 20
1485.063631036085
 30
0.0
 70
    32
  0
VERTEX
  5
42F
  8
0
  6
CONTINUOUS
 62
     7
 10
3874.913696585485
 20
1485.063631036085
 30
0.0
 70
    32
  0
VERTEX
  5
430
  8
0
  6
CONTINUOUS
 62
     7
 10
3874.885705215008
 20
1485.063631036085
 30
0.0
 70
    32
  0
VERTEX
  5
431
  8
0
  6
CONTINUOUS
 62
     7
 10
3874.857190830759
 20
1485.063631036085
 30
0.0
 70
    32
  0
VERTEX
  5
432
  8
0
  6
CONTINUOUS
 62
     7
 10
3874.828206179905
 20
1485.063631036085
 30
0.0
 70
    32
  0
VERTEX
  5
433
  8
0
  6
CONTINUOUS
 62
     7
 10
3874.798761871026
 20
1485.063631036085
 30
0.0
 70
    32
  0
VERTEX
  5
434
  8
0
  6
CONTINUOUS
 62
     7
 10
3874.768855666617
 20
1485.063631036085
 30
0.0
 70
    32
  0
VERTEX
  5
435
  8
0
  6
CONTINUOUS
 62
     7
 10
3874.73848532607
 20
1485.063631036085
 30
0.0
 70
    32
  0
VERTEX
  5
436
  8
0
  6
CONTINUOUS
 62
     7
 10
3874.707648608778
 20
1485.063631036085
 30
0.0
 70
    32
  0
VERTEX
  5
437
  8
0
  6
CONTINUOUS
 62
     7
 10
3874.676343274129
 20
1485.063631036085
 30
0.0
 70
    32
  0
VERTEX
  5
438
  8
0
  6
CONTINUOUS
 62
     7
 10
3874.644567081517
 20
1485.063631036085
 30
0.0
 70
    32
  0
VERTEX
  5
439
  8
0
  6
CONTINUOUS
 62
     7
 10
3874.612317790334
 20
1485.063631036085
 30
0.0
 70
    32
  0
VERTEX
  5
43A
  8
0
  6
CONTINUOUS
 62
     7
 10
3874.579593159969
 20
1485.063631036085
 30
0.0
 70
    32
  0
VERTEX
  5
43B
  8
0
  6
CONTINUOUS
 62
     7
 10
3874.546390949813
 20
1485.063631036085
 30
0.0
 70
    32
  0
VERTEX
  5
43C
  8
0
  6
CONTINUOUS
 62
     7
 10
3874.512710511005
 20
1485.063631036085
 30
0.0
 70
    32
  0
VERTEX
  5
43D
  8
0
  6
CONTINUOUS
 62
     7
 10
3874.478563117681
 20
1485.063631036085
 30
0.0
 70
    32
  0
VERTEX
  5
43E
  8
0
  6
CONTINUOUS
 62
     7
 10
3874.443965450771
 20
1485.063631036085
 30
0.0
 70
    32
  0
VERTEX
  5
43F
  8
0
  6
CONTINUOUS
 62
     7
 10
3874.408934218081
 20
1485.063631036085
 30
0.0
 70
    32
  0
VERTEX
  5
440
  8
0
  6
CONTINUOUS
 62
     7
 10
3874.373486127419
 20
1485.063631036085
 30
0.0
 70
    32
  0
VERTEX
  5
441
  8
0
  6
CONTINUOUS
 62
     7
 10
3874.337637886592
 20
1485.063631036085
 30
0.0
 70
    32
  0
VERTEX
  5
442
  8
0
  6
CONTINUOUS
 62
     7
 10
3874.301406203411
 20
1485.063631036085
 30
0.0
 70
    32
  0
VERTEX
  5
443
  8
0
  6
CONTINUOUS
 62
     7
 10
3874.26480778568
 20
1485.063631036085
 30
0.0
 70
    32
  0
VERTEX
  5
444
  8
0
  6
CONTINUOUS
 62
     7
 10
3874.227859341208
 20
1485.063631036085
 30
0.0
 70
    32
  0
VERTEX
  5
445
  8
0
  6
CONTINUOUS
 62
     7
 10
3874.190577577802
 20
1485.063631036085
 30
0.0
 70
    32
  0
VERTEX
  5
446
  8
0
  6
CONTINUOUS
 62
     7
 10
3874.152979201266
 20
1485.063631036085
 30
0.0
 70
    32
  0
VERTEX
  5
447
  8
0
  6
CONTINUOUS
 62
     7
 10
3874.115080892123
 20
1485.063631036085
 30
0.0
 70
    32
  0
VERTEX
  5
448
  8
0
  6
CONTINUOUS
 62
     7
 10
3874.076899313616
 20
1485.063631036085
 30
0.0
 70
    32
  0
VERTEX
  5
449
  8
0
  6
CONTINUOUS
 62
     7
 10
3874.038451128647
 20
1485.063631036085
 30
0.0
 70
    32
  0
VERTEX
  5
44A
  8
0
  6
CONTINUOUS
 62
     7
 10
3873.99975300012
 20
1485.063631036085
 30
0.0
 70
    32
  0
VERTEX
  5
44B
  8
0
  6
CONTINUOUS
 62
     7
 10
3873.960821590938
 20
1485.063631036085
 30
0.0
 70
    32
  0
VERTEX
  5
44C
  8
0
  6
CONTINUOUS
 62
     7
 10
3873.921673564008
 20
1485.063631036085
 30
0.0
 70
    32
  0
VERTEX
  5
44D
  8
0
  6
CONTINUOUS
 62
     7
 10
3873.88232558223
 20
1485.063631036084
 30
0.0
 70
    32
  0
VERTEX
  5
44E
  8
0
  6
CONTINUOUS
 62
     7
 10
3873.842794308511
 20
1485.063631036085
 30
0.0
 70
    32
  0
VERTEX
  5
44F
  8
0
  6
CONTINUOUS
 62
     7
 10
3873.803096405753
 20
1485.063631036084
 30
0.0
 70
    32
  0
VERTEX
  5
450
  8
0
  6
CONTINUOUS
 62
     7
 10
3873.76324853686
 20
1485.063631036084
 30
0.0
 70
    32
  0
VERTEX
  5
451
  8
0
  6
CONTINUOUS
 62
     7
 10
3873.723267364736
 20
1485.063631036084
 30
0.0
 70
    32
  0
VERTEX
  5
452
  8
0
  6
CONTINUOUS
 62
     7
 10
3873.683169552285
 20
1485.063631036084
 30
0.0
 70
    32
  0
VERTEX
  5
453
  8
0
  6
CONTINUOUS
 62
     7
 10
3873.642971762411
 20
1485.063631036084
 30
0.0
 70
    32
  0
VERTEX
  5
454
  8
0
  6
CONTINUOUS
 62
     7
 10
3873.602690658018
 20
1485.063631036084
 30
0.0
 70
    32
  0
VERTEX
  5
455
  8
0
  6
CONTINUOUS
 62
     7
 10
3873.56234290201
 20
1485.063631036084
 30
0.0
 70
    32
  0
VERTEX
  5
456
  8
0
  6
CONTINUOUS
 62
     7
 10
3873.52194515729
 20
1485.063631036084
 30
0.0
 70
    32
  0
VERTEX
  5
457
  8
0
  6
CONTINUOUS
 62
     7
 10
3873.481514086761
 20
1485.063631036083
 30
0.0
 70
    32
  0
VERTEX
  5
458
  8
0
  6
CONTINUOUS
 62
     7
 10
3873.44106635333
 20
1485.063631036083
 30
0.0
 70
    32
  0
SEQEND
  5
55A
  8
0
  6
CONTINUOUS
 62
     7
  0
LINE
  5
149
  8
0
  6
CONTINUOUS
 62
     7
 10
3873.441066353327
 20
1486.063631036086
 30
0.0
 11
3873.44106635333
 21
1485.063631036083
 31
0.0
  0
LINE
  5
14A
  8
0
  6
CONTINUOUS
 62
     7
 10
3873.441066353321
 20
1542.063631036083
 30
0.0
 11
3873.441066353331
 21
1541.063631036081
 31
0.0
  0
POLYLINE
  5
14B
  8
0
  6
CONTINUOUS
 62
     7
 10
0.0
 20
0.0
 30
0.0
 66
     1
 70
     8
  0
VERTEX
  5
459
  8
0
  6
CONTINUOUS
 62
     7
 10
3873.441066353321
 20
1542.063631036083
 30
0.0
 70
    32
  0
VERTEX
  5
45A
  8
0
  6
CONTINUOUS
 62
     7
 10
3873.481514832019
 20
1542.063631036083
 30
0.0
 70
    32
  0
VERTEX
  5
45B
  8
0
  6
CONTINUOUS
 62
     7
 10
3873.521946644321
 20
1542.063631036083
 30
0.0
 70
    32
  0
VERTEX
  5
45C
  8
0
  6
CONTINUOUS
 62
     7
 10
3873.562345123834
 20
1542.063631036083
 30
0.0
 70
    32
  0
VERTEX
  5
45D
  8
0
  6
CONTINUOUS
 62
     7
 10
3873.602693604161
 20
1542.063631036082
 30
0.0
 70
    32
  0
VERTEX
  5
45E
  8
0
  6
CONTINUOUS
 62
     7
 10
3873.642975418911
 20
1542.063631036083
 30
0.0
 70
    32
  0
VERTEX
  5
45F
  8
0
  6
CONTINUOUS
 62
     7
 10
3873.683173901685
 20
1542.063631036082
 30
0.0
 70
    32
  0
VERTEX
  5
460
  8
0
  6
CONTINUOUS
 62
     7
 10
3873.723272386091
 20
1542.063631036083
 30
0.0
 70
    32
  0
VERTEX
  5
461
  8
0
  6
CONTINUOUS
 62
     7
 10
3873.763254205734
 20
1542.063631036083
 30
0.0
 70
    32
  0
VERTEX
  5
462
  8
0
  6
CONTINUOUS
 62
     7
 10
3873.803102694217
 20
1542.063631036083
 30
0.0
 70
    32
  0
VERTEX
  5
463
  8
0
  6
CONTINUOUS
 62
     7
 10
3873.842801185147
 20
1542.063631036082
 30
0.0
 70
    32
  0
VERTEX
  5
464
  8
0
  6
CONTINUOUS
 62
     7
 10
3873.88233301213
 20
1542.063631036083
 30
0.0
 70
    32
  0
VERTEX
  5
465
  8
0
  6
CONTINUOUS
 62
     7
 10
3873.921681508769
 20
1542.063631036082
 30
0.0
 70
    32
  0
VERTEX
  5
466
  8
0
  6
CONTINUOUS
 62
     7
 10
3873.960830008671
 20
1542.063631036083
 30
0.0
 70
    32
  0
VERTEX
  5
467
  8
0
  6
CONTINUOUS
 62
     7
 10
3873.99976184544
 20
1542.063631036083
 30
0.0
 70
    32
  0
VERTEX
  5
468
  8
0
  6
CONTINUOUS
 62
     7
 10
3874.038460352681
 20
1542.063631036082
 30
0.0
 70
    32
  0
VERTEX
  5
469
  8
0
  6
CONTINUOUS
 62
     7
 10
3874.076908864
 20
1542.063631036082
 30
0.0
 70
    32
  0
VERTEX
  5
46A
  8
0
  6
CONTINUOUS
 62
     7
 10
3874.115090713002
 20
1542.063631036082
 30
0.0
 70
    32
  0
VERTEX
  5
46B
  8
0
  6
CONTINUOUS
 62
     7
 10
3874.152989233293
 20
1542.063631036083
 30
0.0
 70
    32
  0
VERTEX
  5
46C
  8
0
  6
CONTINUOUS
 62
     7
 10
3874.190587758234
 20
1542.063631036083
 30
0.0
 70
    32
  0
VERTEX
  5
46D
  8
0
  6
CONTINUOUS
 62
     7
 10
3874.227869608728
 20
1542.063631036082
 30
0.0
 70
    32
  0
VERTEX
  5
46E
  8
0
  6
CONTINUOUS
 62
     7
 10
3874.264818087471
 20
1542.063631036083
 30
0.0
 70
    32
  0
VERTEX
  5
46F
  8
0
  6
CONTINUOUS
 62
     7
 10
3874.301416495712
 20
1542.063631036083
 30
0.0
 70
    32
  0
VERTEX
  5
470
  8
0
  6
CONTINUOUS
 62
     7
 10
3874.337648134707
 20
1542.063631036082
 30
0.0
 70
    32
  0
VERTEX
  5
471
  8
0
  6
CONTINUOUS
 62
     7
 10
3874.373496305706
 20
1542.063631036082
 30
0.0
 70
    32
  0
VERTEX
  5
472
  8
0
  6
CONTINUOUS
 62
     7
 10
3874.408944309961
 20
1542.063631036082
 30
0.0
 70
    32
  0
VERTEX
  5
473
  8
0
  6
CONTINUOUS
 62
     7
 10
3874.443975448726
 20
1542.063631036083
 30
0.0
 70
    32
  0
VERTEX
  5
474
  8
0
  6
CONTINUOUS
 62
     7
 10
3874.47857302325
 20
1542.063631036082
 30
0.0
 70
    32
  0
VERTEX
  5
475
  8
0
  6
CONTINUOUS
 62
     7
 10
3874.512720334788
 20
1542.063631036082
 30
0.0
 70
    32
  0
VERTEX
  5
476
  8
0
  6
CONTINUOUS
 62
     7
 10
3874.546400717186
 20
1542.063631036082
 30
0.0
 70
    32
  0
VERTEX
  5
477
  8
0
  6
CONTINUOUS
 62
     7
 10
3874.57960306373
 20
1542.063631036083
 30
0.0
 70
    32
  0
VERTEX
  5
478
  8
0
  6
CONTINUOUS
 62
     7
 10
3874.612328065887
 20
1542.063631036082
 30
0.0
 70
    32
  0
VERTEX
  5
479
  8
0
  6
CONTINUOUS
 62
     7
 10
3874.644577921664
 20
1542.063631036082
 30
0.0
 70
    32
  0
VERTEX
  5
47A
  8
0
  6
CONTINUOUS
 62
     7
 10
3874.676354829069
 20
1542.063631036083
 30
0.0
 70
    32
  0
VERTEX
  5
47B
  8
0
  6
CONTINUOUS
 62
     7
 10
3874.707660986105
 20
1542.063631036083
 30
0.0
 70
    32
  0
VERTEX
  5
47C
  8
0
  6
CONTINUOUS
 62
     7
 10
3874.738498590778
 20
1542.063631036082
 30
0.0
 70
    32
  0
VERTEX
  5
47D
  8
0
  6
CONTINUOUS
 62
     7
 10
3874.768869841098
 20
1542.063631036083
 30
0.0
 70
    32
  0
VERTEX
  5
47E
  8
0
  6
CONTINUOUS
 62
     7
 10
3874.798776935067
 20
1542.063631036082
 30
0.0
 70
    32
  0
VERTEX
  5
47F
  8
0
  6
CONTINUOUS
 62
     7
 10
3874.828222070692
 20
1542.063631036082
 30
0.0
 70
    32
  0
VERTEX
  5
480
  8
0
  6
CONTINUOUS
 62
     7
 10
3874.857207442791
 20
1542.063631036083
 30
0.0
 70
    32
  0
VERTEX
  5
481
  8
0
  6
CONTINUOUS
 62
     7
 10
3874.885722373109
 20
1542.063631036082
 30
0.0
 70
    32
  0
VERTEX
  5
482
  8
0
  6
CONTINUOUS
 62
     7
 10
3874.913714028226
 20
1542.063631036082
 30
0.0
 70
    32
  0
VERTEX
  5
483
  8
0
  6
CONTINUOUS
 62
     7
 10
3874.94112095925
 20
1542.063631036083
 30
0.0
 70
    32
  0
VERTEX
  5
484
  8
0
  6
CONTINUOUS
 62
     7
 10
3874.967881717288
 20
1542.063631036083
 30
0.0
 70
    32
  0
VERTEX
  5
485
  8
0
  6
CONTINUOUS
 62
     7
 10
3874.99393485345
 20
1542.063631036082
 30
0.0
 70
    32
  0
VERTEX
  5
486
  8
0
  6
CONTINUOUS
 62
     7
 10
3875.019218918846
 20
1542.063631036082
 30
0.0
 70
    32
  0
VERTEX
  5
487
  8
0
  6
CONTINUOUS
 62
     7
 10
3875.043672464582
 20
1542.063631036082
 30
0.0
 70
    32
  0
VERTEX
  5
488
  8
0
  6
CONTINUOUS
 62
     7
 10
3875.067234041767
 20
1542.063631036082
 30
0.0
 70
    32
  0
VERTEX
  5
489
  8
0
  6
CONTINUOUS
 62
     7
 10
3875.089842201513
 20
1542.063631036082
 30
0.0
 70
    32
  0
VERTEX
  5
48A
  8
0
  6
CONTINUOUS
 62
     7
 10
3875.111435494924
 20
1542.063631036082
 30
0.0
 70
    32
  0
VERTEX
  5
48B
  8
0
  6
CONTINUOUS
 62
     7
 10
3875.131981559974
 20
1542.063631036082
 30
0.0
 70
    32
  0
VERTEX
  5
48C
  8
0
  6
CONTINUOUS
 62
     7
 10
3875.151591923046
 20
1542.063631036082
 30
0.0
 70
    32
  0
VERTEX
  5
48D
  8
0
  6
CONTINUOUS
 62
     7
 10
3875.170422523839
 20
1542.063631036082
 30
0.0
 70
    32
  0
VERTEX
  5
48E
  8
0
  6
CONTINUOUS
 62
     7
 10
3875.18862931481
 20
1542.063631036082
 30
0.0
 70
    32
  0
VERTEX
  5
48F
  8
0
  6
CONTINUOUS
 62
     7
 10
3875.206368248411
 20
1542.063631036082
 30
0.0
 70
    32
  0
VERTEX
  5
490
  8
0
  6
CONTINUOUS
 62
     7
 10
3875.223795277102
 20
1542.063631036082
 30
0.0
 70
    32
  0
VERTEX
  5
491
  8
0
  6
CONTINUOUS
 62
     7
 10
3875.241066353336
 20
1542.063631036082
 30
0.0
 70
    32
  0
SEQEND
  5
55B
  8
0
  6
CONTINUOUS
 62
     7
  0
LINE
  5
14C
  8
0
  6
CONTINUOUS
 62
     7
 10
3873.441066353327
 20
1486.063631036086
 30
0.0
 11
3873.441066353331
 21
1541.063631036081
 31
0.0
  0
LINE
  5
14D
  8
0
  6
CONTINUOUS
 62
     7
 10
3873.24106635333
 20
1485.063631036083
 30
0.0
 11
3873.44106635333
 21
1485.063631036083
 31
0.0
  0
LINE
  5
14E
  8
0
  6
CONTINUOUS
 62
     7
 10
3873.241066353327
 20
1486.063631036086
 30
0.0
 11
3873.441066353327
 21
1486.063631036086
 31
0.0
  0
LINE
  5
14F
  8
0
  6
CONTINUOUS
 62
     7
 10
3873.241066353331
 20
1541.063631036081
 30
0.0
 11
3873.441066353331
 21
1541.063631036081
 31
0.0
  0
LINE
  5
150
  8
0
  6
CONTINUOUS
 62
     7
 10
3873.441066353321
 20
1542.063631036083
 30
0.0
 11
3873.241066353321
 21
1542.063631036083
 31
0.0
  0
POLYLINE
  5
151
  8
0
  6
CONTINUOUS
 62
     7
 10
0.0
 20
0.0
 30
0.0
 66
     1
 70
     8
  0
VERTEX
  5
492
  8
0
  6
CONTINUOUS
 62
     7
 10
3875.241066353336
 20
665.0636310360843
 30
0.0
 70
    32
  0
VERTEX
  5
493
  8
0
  6
CONTINUOUS
 62
     7
 10
3875.223797527957
 20
665.0636310360844
 30
0.0
 70
    32
  0
VERTEX
  5
494
  8
0
  6
CONTINUOUS
 62
     7
 10
3875.206372444486
 20
665.0636310360843
 30
0.0
 70
    32
  0
VERTEX
  5
495
  8
0
  6
CONTINUOUS
 62
     7
 10
3875.188634844832
 20
665.0636310360843
 30
0.0
 70
    32
  0
VERTEX
  5
496
  8
0
  6
CONTINUOUS
 62
     7
 10
3875.170428470906
 20
665.0636310360843
 30
0.0
 70
    32
  0
VERTEX
  5
497
  8
0
  6
CONTINUOUS
 62
     7
 10
3875.151597064611
 20
665.0636310360842
 30
0.0
 70
    32
  0
VERTEX
  5
498
  8
0
  6
CONTINUOUS
 62
     7
 10
3875.131984367862
 20
665.0636310360843
 30
0.0
 70
    32
  0
VERTEX
  5
499
  8
0
  6
CONTINUOUS
 62
     7
 10
3875.111434144573
 20
665.0636310360843
 30
0.0
 70
    32
  0
VERTEX
  5
49A
  8
0
  6
CONTINUOUS
 62
     7
 10
3875.089836356955
 20
665.0636310360843
 30
0.0
 70
    32
  0
VERTEX
  5
49B
  8
0
  6
CONTINUOUS
 62
     7
 10
3875.067224561634
 20
665.0636310360843
 30
0.0
 70
    32
  0
VERTEX
  5
49C
  8
0
  6
CONTINUOUS
 62
     7
 10
3875.043660132853
 20
665.0636310360843
 30
0.0
 70
    32
  0
VERTEX
  5
49D
  8
0
  6
CONTINUOUS
 62
     7
 10
3875.019204444851
 20
665.0636310360843
 30
0.0
 70
    32
  0
VERTEX
  5
49E
  8
0
  6
CONTINUOUS
 62
     7
 10
3874.993918871874
 20
665.0636310360843
 30
0.0
 70
    32
  0
VERTEX
  5
49F
  8
0
  6
CONTINUOUS
 62
     7
 10
3874.967864788158
 20
665.0636310360843
 30
0.0
 70
    32
  0
VERTEX
  5
4A0
  8
0
  6
CONTINUOUS
 62
     7
 10
3874.941103567948
 20
665.0636310360843
 30
0.0
 70
    32
  0
VERTEX
  5
4A1
  8
0
  6
CONTINUOUS
 62
     7
 10
3874.913696585484
 20
665.0636310360843
 30
0.0
 70
    32
  0
VERTEX
  5
4A2
  8
0
  6
CONTINUOUS
 62
     7
 10
3874.885705215007
 20
665.0636310360843
 30
0.0
 70
    32
  0
VERTEX
  5
4A3
  8
0
  6
CONTINUOUS
 62
     7
 10
3874.857190830759
 20
665.0636310360842
 30
0.0
 70
    32
  0
VERTEX
  5
4A4
  8
0
  6
CONTINUOUS
 62
     7
 10
3874.828206179905
 20
665.0636310360842
 30
0.0
 70
    32
  0
VERTEX
  5
4A5
  8
0
  6
CONTINUOUS
 62
     7
 10
3874.798761871025
 20
665.0636310360843
 30
0.0
 70
    32
  0
VERTEX
  5
4A6
  8
0
  6
CONTINUOUS
 62
     7
 10
3874.768855666616
 20
665.0636310360843
 30
0.0
 70
    32
  0
VERTEX
  5
4A7
  8
0
  6
CONTINUOUS
 62
     7
 10
3874.73848532607
 20
665.0636310360843
 30
0.0
 70
    32
  0
VERTEX
  5
4A8
  8
0
  6
CONTINUOUS
 62
     7
 10
3874.707648608776
 20
665.0636310360841
 30
0.0
 70
    32
  0
VERTEX
  5
4A9
  8
0
  6
CONTINUOUS
 62
     7
 10
3874.676343274128
 20
665.0636310360841
 30
0.0
 70
    32
  0
VERTEX
  5
4AA
  8
0
  6
CONTINUOUS
 62
     7
 10
3874.644567081517
 20
665.0636310360843
 30
0.0
 70
    32
  0
VERTEX
  5
4AB
  8
0
  6
CONTINUOUS
 62
     7
 10
3874.612317790333
 20
665.0636310360842
 30
0.0
 70
    32
  0
VERTEX
  5
4AC
  8
0
  6
CONTINUOUS
 62
     7
 10
3874.579593159969
 20
665.0636310360843
 30
0.0
 70
    32
  0
VERTEX
  5
4AD
  8
0
  6
CONTINUOUS
 62
     7
 10
3874.546390949813
 20
665.0636310360843
 30
0.0
 70
    32
  0
VERTEX
  5
4AE
  8
0
  6
CONTINUOUS
 62
     7
 10
3874.512710511005
 20
665.0636310360844
 30
0.0
 70
    32
  0
VERTEX
  5
4AF
  8
0
  6
CONTINUOUS
 62
     7
 10
3874.478563117681
 20
665.0636310360843
 30
0.0
 70
    32
  0
VERTEX
  5
4B0
  8
0
  6
CONTINUOUS
 62
     7
 10
3874.443965450771
 20
665.0636310360843
 30
0.0
 70
    32
  0
VERTEX
  5
4B1
  8
0
  6
CONTINUOUS
 62
     7
 10
3874.408934218081
 20
665.0636310360843
 30
0.0
 70
    32
  0
VERTEX
  5
4B2
  8
0
  6
CONTINUOUS
 62
     7
 10
3874.373486127419
 20
665.0636310360844
 30
0.0
 70
    32
  0
VERTEX
  5
4B3
  8
0
  6
CONTINUOUS
 62
     7
 10
3874.337637886593
 20
665.0636310360845
 30
0.0
 70
    32
  0
VERTEX
  5
4B4
  8
0
  6
CONTINUOUS
 62
     7
 10
3874.301406203411
 20
665.0636310360843
 30
0.0
 70
    32
  0
VERTEX
  5
4B5
  8
0
  6
CONTINUOUS
 62
     7
 10
3874.26480778568
 20
665.0636310360844
 30
0.0
 70
    32
  0
VERTEX
  5
4B6
  8
0
  6
CONTINUOUS
 62
     7
 10
3874.227859341208
 20
665.0636310360844
 30
0.0
 70
    32
  0
VERTEX
  5
4B7
  8
0
  6
CONTINUOUS
 62
     7
 10
3874.190577577802
 20
665.0636310360843
 30
0.0
 70
    32
  0
VERTEX
  5
4B8
  8
0
  6
CONTINUOUS
 62
     7
 10
3874.152979201266
 20
665.0636310360844
 30
0.0
 70
    32
  0
VERTEX
  5
4B9
  8
0
  6
CONTINUOUS
 62
     7
 10
3874.115080892124
 20
665.0636310360844
 30
0.0
 70
    32
  0
VERTEX
  5
4BA
  8
0
  6
CONTINUOUS
 62
     7
 10
3874.076899313616
 20
665.0636310360843
 30
0.0
 70
    32
  0
VERTEX
  5
4BB
  8
0
  6
CONTINUOUS
 62
     7
 10
3874.038451128647
 20
665.0636310360842
 30
0.0
 70
    32
  0
VERTEX
  5
4BC
  8
0
  6
CONTINUOUS
 62
     7
 10
3873.999753000119
 20
665.063631036084
 30
0.0
 70
    32
  0
VERTEX
  5
4BD
  8
0
  6
CONTINUOUS
 62
     7
 10
3873.960821590938
 20
665.063631036084
 30
0.0
 70
    32
  0
VERTEX
  5
4BE
  8
0
  6
CONTINUOUS
 62
     7
 10
3873.921673564008
 20
665.063631036084
 30
0.0
 70
    32
  0
VERTEX
  5
4BF
  8
0
  6
CONTINUOUS
 62
     7
 10
3873.88232558223
 20
665.0636310360838
 30
0.0
 70
    32
  0
VERTEX
  5
4C0
  8
0
  6
CONTINUOUS
 62
     7
 10
3873.842794308511
 20
665.0636310360836
 30
0.0
 70
    32
  0
VERTEX
  5
4C1
  8
0
  6
CONTINUOUS
 62
     7
 10
3873.803096405753
 20
665.0636310360835
 30
0.0
 70
    32
  0
VERTEX
  5
4C2
  8
0
  6
CONTINUOUS
 62
     7
 10
3873.763248536859
 20
665.0636310360834
 30
0.0
 70
    32
  0
VERTEX
  5
4C3
  8
0
  6
CONTINUOUS
 62
     7
 10
3873.723267364736
 20
665.0636310360833
 30
0.0
 70
    32
  0
VERTEX
  5
4C4
  8
0
  6
CONTINUOUS
 62
     7
 10
3873.683169552285
 20
665.0636310360832
 30
0.0
 70
    32
  0
VERTEX
  5
4C5
  8
0
  6
CONTINUOUS
 62
     7
 10
3873.642971762411
 20
665.063631036083
 30
0.0
 70
    32
  0
VERTEX
  5
4C6
  8
0
  6
CONTINUOUS
 62
     7
 10
3873.602690658018
 20
665.0636310360828
 30
0.0
 70
    32
  0
VERTEX
  5
4C7
  8
0
  6
CONTINUOUS
 62
     7
 10
3873.56234290201
 20
665.0636310360826
 30
0.0
 70
    32
  0
VERTEX
  5
4C8
  8
0
  6
CONTINUOUS
 62
     7
 10
3873.52194515729
 20
665.0636310360825
 30
0.0
 70
    32
  0
VERTEX
  5
4C9
  8
0
  6
CONTINUOUS
 62
     7
 10
3873.481514086761
 20
665.0636310360823
 30
0.0
 70
    32
  0
VERTEX
  5
4CA
  8
0
  6
CONTINUOUS
 62
     7
 10
3873.44106635333
 20
665.0636310360821
 30
0.0
 70
    32
  0
SEQEND
  5
55C
  8
0
  6
CONTINUOUS
 62
     7
  0
LINE
  5
152
  8
0
  6
CONTINUOUS
 62
     7
 10
3873.441066353327
 20
666.0636310360846
 30
0.0
 11
3873.44106635333
 21
665.0636310360821
 31
0.0
  0
LINE
  5
153
  8
0
  6
CONTINUOUS
 62
     7
 10
3873.241066353327
 20
666.0636310360846
 30
0.0
 11
3873.441066353327
 21
666.0636310360846
 31
0.0
  0
LINE
  5
154
  8
0
  6
CONTINUOUS
 62
     7
 10
3873.24106635333
 20
665.0636310360821
 30
0.0
 11
3873.44106635333
 21
665.0636310360821
 31
0.0
  0
LINE
  5
155
  8
0
  6
CONTINUOUS
 62
     7
 10
3875.241066353336
 20
2270.563631036082
 30
0.0
 11
3873.241066353337
 21
2270.563631036082
 31
0.0
  0
LINE
  5
156
  8
0
  6
CONTINUOUS
 62
     7
 10
3875.241066353336
 20
2248.563631036082
 30
0.0
 11
3873.241066353337
 21
2248.563631036082
 31
0.0
  0
LINE
  5
157
  8
0
  6
CONTINUOUS
 62
     7
 10
3875.241066353336
 20
780.563631036082
 30
0.0
 11
3873.241066353337
 21
780.563631036082
 31
0.0
  0
LINE
  5
158
  8
0
  6
CONTINUOUS
 62
     7
 10
3875.241066353336
 20
720.563631036082
 30
0.0
 11
3873.241066353337
 21
720.563631036082
 31
0.0
  0
LINE
  5
159
  8
0
  6
CONTINUOUS
 62
     7
 10
3855.241066353336
 20
613.5636310360823
 30
0.0
 11
3855.241066353336
 21
2359.563631036082
 31
0.0
  0
LINE
  5
15A
  8
0
  6
CONTINUOUS
 62
     7
 10
3855.241066353336
 20
2359.563631036082
 30
0.0
 11
3873.241066353337
 21
2359.563631036082
 31
0.0
  0
LINE
  5
15B
  8
0
  6
CONTINUOUS
 62
     7
 10
3855.241066353336
 20
613.5636310360823
 30
0.0
 11
3873.241066353337
 21
613.5636310360823
 31
0.0
  0
LINE
  5
15C
  8
0
  6
CONTINUOUS
 62
     7
 10
3873.241066353337
 20
613.5636310360823
 30
0.0
 11
3873.241066353337
 21
2359.563631036082
 31
0.0
  0
LINE
  5
15D
  8
0
  6
CONTINUOUS
 62
     7
 10
3875.241066353336
 20
611.5636310360824
 30
0.0
 11
3875.241066353336
 21
2361.563631036082
 31
0.0
  0
LINE
  5
15E
  8
0
  6
CONTINUOUS
 62
     7
 10
3875.241066353336
 20
2361.563631036082
 30
0.0
 11
4005.241066353337
 21
2361.563631036082
 31
0.0
  0
LINE
  5
15F
  8
0
  6
CONTINUOUS
 62
     7
 10
4005.241066353337
 20
611.5636310360824
 30
0.0
 11
4005.241066353337
 21
2361.563631036082
 31
0.0
  0
LINE
  5
160
  8
0
  6
CONTINUOUS
 62
     7
 10
3875.241066353336
 20
611.5636310360824
 30
0.0
 11
4005.241066353337
 21
611.5636310360824
 31
0.0
  0
LINE
  5
161
  8
0
  6
CONTINUOUS
 62
     8
 10
3875.241066353336
 20
2307.063631036079
 30
0.0
 11
3873.441066353331
 21
2307.063631036081
 31
0.0
  0
LINE
  5
162
  8
0
  6
CONTINUOUS
 62
     8
 10
3873.44106635333
 20
2290.563631036082
 30
0.0
 11
3873.441066353331
 21
2307.063631036081
 31
0.0
  0
LINE
  5
163
  8
0
  6
CONTINUOUS
 62
     8
 10
3873.441066353327
 20
1486.063631036086
 30
0.0
 11
3875.241066353336
 21
1486.063631036084
 31
0.0
  0
LINE
  5
164
  8
0
  6
CONTINUOUS
 62
     8
 10
3875.241066353336
 20
1541.06363103608
 30
0.0
 11
3873.441066353331
 21
1541.063631036081
 31
0.0
  0
LINE
  5
165
  8
0
  6
CONTINUOUS
 62
     8
 10
3873.441066353327
 20
666.0636310360846
 30
0.0
 11
3875.241066353336
 21
666.0636310360836
 31
0.0
  0
LINE
  5
166
  8
0
  6
CONTINUOUS
 62
     8
 10
3873.441066353327
 20
666.0636310360846
 30
0.0
 11
3873.441066353329
 21
700.5636310360821
 31
0.0
  0
LINE
  5
167
  8
0
  6
CONTINUOUS
 62
     7
 10
2242.712923863907
 20
2949.125884198932
 30
0.0
 11
2242.712923863908
 21
2948.925884198933
 31
0.0
  0
LINE
  5
168
  8
0
  6
CONTINUOUS
 62
     7
 10
2222.712923863905
 20
2948.925884198949
 30
0.0
 11
2222.712923863905
 21
2949.125884198949
 31
0.0
  0
POLYLINE
  5
169
  8
0
  6
CONTINUOUS
 62
     7
 66
     1
 10
0.0
 20
0.0
 30
0.0
  0
VERTEX
  5
4CB
  8
0
  6
CONTINUOUS
 62
     7
 10
2224.712923863906
 20
2951.125884198931
 30
0.0
  0
VERTEX
  5
4CC
  8
0
  6
CONTINUOUS
 62
     7
 10
2224.663692210092
 20
2951.120608969534
 30
0.0
  0
VERTEX
  5
4CD
  8
0
  6
CONTINUOUS
 62
     7
 10
2224.614491120061
 20
2951.115233972949
 30
0.0
  0
VERTEX
  5
4CE
  8
0
  6
CONTINUOUS
 62
     7
 10
2224.565351157598
 20
2951.109659441987
 30
0.0
  0
VERTEX
  5
4CF
  8
0
  6
CONTINUOUS
 62
     7
 10
2224.516302886486
 20
2951.103785609459
 30
0.0
  0
VERTEX
  5
4D0
  8
0
  6
CONTINUOUS
 62
     7
 10
2224.467376870511
 20
2951.097512708176
 30
0.0
  0
VERTEX
  5
4D1
  8
0
  6
CONTINUOUS
 62
     7
 10
2224.418603673456
 20
2951.09074097095
 30
0.0
  0
VERTEX
  5
4D2
  8
0
  6
CONTINUOUS
 62
     7
 10
2224.370013859103
 20
2951.083370630592
 30
0.0
  0
VERTEX
  5
4D3
  8
0
  6
CONTINUOUS
 62
     7
 10
2224.321637991238
 20
2951.075301919913
 30
0.0
  0
VERTEX
  5
4D4
  8
0
  6
CONTINUOUS
 62
     7
 10
2224.273506633644
 20
2951.066435071726
 30
0.0
  0
VERTEX
  5
4D5
  8
0
  6
CONTINUOUS
 62
     7
 10
2224.225650350106
 20
2951.05667031884
 30
0.0
  0
VERTEX
  5
4D6
  8
0
  6
CONTINUOUS
 62
     7
 10
2224.178099704406
 20
2951.045907894068
 30
0.0
  0
VERTEX
  5
4D7
  8
0
  6
CONTINUOUS
 62
     7
 10
2224.13088526033
 20
2951.03404803022
 30
0.0
  0
VERTEX
  5
4D8
  8
0
  6
CONTINUOUS
 62
     7
 10
2224.08403758166
 20
2951.020990960109
 30
0.0
  0
VERTEX
  5
4D9
  8
0
  6
CONTINUOUS
 62
     7
 10
2224.037587232182
 20
2951.006636916546
 30
0.0
  0
VERTEX
  5
4DA
  8
0
  6
CONTINUOUS
 62
     7
 10
2223.991564775677
 20
2950.990886132342
 30
0.0
  0
VERTEX
  5
4DB
  8
0
  6
CONTINUOUS
 62
     7
 10
2223.94600040457
 20
2950.973647738246
 30
0.0
  0
VERTEX
  5
4DC
  8
0
  6
CONTINUOUS
 62
     7
 10
2223.900920131974
 20
2950.95493100217
 30
0.0
  0
VERTEX
  5
4DD
  8
0
  6
CONTINUOUS
 62
     7
 10
2223.856347338695
 20
2950.934808262795
 30
0.0
  0
VERTEX
  5
4DE
  8
0
  6
CONTINUOUS
 62
     7
 10
2223.812305364457
 20
2950.913352843174
 30
0.0
  0
VERTEX
  5
4DF
  8
0
  6
CONTINUOUS
 62
     7
 10
2223.768817548981
 20
2950.890638066357
 30
0.0
  0
VERTEX
  5
4E0
  8
0
  6
CONTINUOUS
 62
     7
 10
2223.72590723199
 20
2950.866737255396
 30
0.0
  0
VERTEX
  5
4E1
  8
0
  6
CONTINUOUS
 62
     7
 10
2223.683597753208
 20
2950.841723733342
 30
0.0
  0
VERTEX
  5
4E2
  8
0
  6
CONTINUOUS
 62
     7
 10
2223.641912452355
 20
2950.815670823246
 30
0.0
  0
VERTEX
  5
4E3
  8
0
  6
CONTINUOUS
 62
     7
 10
2223.600874670988
 20
2950.788651400697
 30
0.0
  0
VERTEX
  5
4E4
  8
0
  6
CONTINUOUS
 62
     7
 10
2223.5605078532
 20
2950.760713324656
 30
0.0
  0
VERTEX
  5
4E5
  8
0
  6
CONTINUOUS
 62
     7
 10
2223.520835597838
 20
2950.731866696096
 30
0.0
  0
VERTEX
  5
4E6
  8
0
  6
CONTINUOUS
 62
     7
 10
2223.481881516586
 20
2950.702118484106
 30
0.0
  0
VERTEX
  5
4E7
  8
0
  6
CONTINUOUS
 62
     7
 10
2223.443669221129
 20
2950.671475657772
 30
0.0
  0
VERTEX
  5
4E8
  8
0
  6
CONTINUOUS
 62
     7
 10
2223.406222323152
 20
2950.63994518618
 30
0.0
  0
VERTEX
  5
4E9
  8
0
  6
CONTINUOUS
 62
     7
 10
2223.36956443434
 20
2950.607534038419
 30
0.0
  0
VERTEX
  5
4EA
  8
0
  6
CONTINUOUS
 62
     7
 10
2223.333719166377
 20
2950.574249183575
 30
0.0
  0
VERTEX
  5
4EB
  8
0
  6
CONTINUOUS
 62
     7
 10
2223.298710130948
 20
2950.540097590735
 30
0.0
  0
VERTEX
  5
4EC
  8
0
  6
CONTINUOUS
 62
     7
 10
2223.264558160922
 20
2950.505088997935
 30
0.0
  0
VERTEX
  5
4ED
  8
0
  6
CONTINUOUS
 62
     7
 10
2223.23127297407
 20
2950.469244218845
 30
0.0
  0
VERTEX
  5
4EE
  8
0
  6
CONTINUOUS
 62
     7
 10
2223.198861509426
 20
2950.432586836004
 30
0.0
  0
VERTEX
  5
4EF
  8
0
  6
CONTINUOUS
 62
     7
 10
2223.167330706029
 20
2950.39514043195
 30
0.0
  0
VERTEX
  5
4F0
  8
0
  6
CONTINUOUS
 62
     7
 10
2223.136687502915
 20
2950.35692858922
 30
0.0
  0
VERTEX
  5
4F1
  8
0
  6
CONTINUOUS
 62
     7
 10
2223.106938839119
 20
2950.317974890353
 30
0.0
  0
VERTEX
  5
4F2
  8
0
  6
CONTINUOUS
 62
     7
 10
2223.07809165368
 20
2950.278302917886
 30
0.0
  0
VERTEX
  5
4F3
  8
0
  6
CONTINUOUS
 62
     7
 10
2223.050152885632
 20
2950.237936254357
 30
0.0
  0
VERTEX
  5
4F4
  8
0
  6
CONTINUOUS
 62
     7
 10
2223.023132762596
 20
2950.196898471713
 30
0.0
  0
VERTEX
  5
4F5
  8
0
  6
CONTINUOUS
 62
     7
 10
2222.99707960532
 20
2950.155213019206
 30
0.0
  0
VERTEX
  5
4F6
  8
0
  6
CONTINUOUS
 62
     7
 10
2222.972066246045
 20
2950.112903267139
 30
0.0
  0
VERTEX
  5
4F7
  8
0
  6
CONTINUOUS
 62
     7
 10
2222.948165922638
 20
2950.069992584511
 30
0.0
  0
VERTEX
  5
4F8
  8
0
  6
CONTINUOUS
 62
     7
 10
2222.925451872967
 20
2950.026504340319
 30
0.0
  0
VERTEX
  5
4F9
  8
0
  6
CONTINUOUS
 62
     7
 10
2222.903997334898
 20
2949.98246190356
 30
0.0
  0
VERTEX
  5
4FA
  8
0
  6
CONTINUOUS
 62
     7
 10
2222.883875546299
 20
2949.937888643234
 30
0.0
  0
VERTEX
  5
4FB
  8
0
  6
CONTINUOUS
 62
     7
 10
2222.865159745037
 20
2949.892807928336
 30
0.0
  0
VERTEX
  5
4FC
  8
0
  6
CONTINUOUS
 62
     7
 10
2222.847922185154
 20
2949.847243168755
 30
0.0
  0
VERTEX
  5
4FD
  8
0
  6
CONTINUOUS
 62
     7
 10
2222.832172084733
 20
2949.801220394265
 30
0.0
  0
VERTEX
  5
4FE
  8
0
  6
CONTINUOUS
 62
     7
 10
2222.817818579967
 20
2949.754769794224
 30
0.0
  0
VERTEX
  5
4FF
  8
0
  6
CONTINUOUS
 62
     7
 10
2222.804761914026
 20
2949.707921927599
 30
0.0
  0
VERTEX
  5
500
  8
0
  6
CONTINUOUS
 62
     7
 10
2222.792902330075
 20
2949.66070735336
 30
0.0
  0
VERTEX
  5
501
  8
0
  6
CONTINUOUS
 62
     7
 10
2222.782140071283
 20
2949.613156630473
 30
0.0
  0
VERTEX
  5
502
  8
0
  6
CONTINUOUS
 62
     7
 10
2222.772375380816
 20
2949.565300317907
 30
0.0
  0
VERTEX
  5
503
  8
0
  6
CONTINUOUS
 62
     7
 10
2222.763508501843
 20
2949.517168974629
 30
0.0
  0
VERTEX
  5
504
  8
0
  6
CONTINUOUS
 62
     7
 10
2222.755439677531
 20
2949.468793159608
 30
0.0
  0
VERTEX
  5
505
  8
0
  6
CONTINUOUS
 62
     7
 10
2222.748069151047
 20
2949.420203431811
 30
0.0
  0
VERTEX
  5
506
  8
0
  6
CONTINUOUS
 62
     7
 10
2222.741297165558
 20
2949.371430350207
 30
0.0
  0
VERTEX
  5
507
  8
0
  6
CONTINUOUS
 62
     7
 10
2222.735023964232
 20
2949.322504473763
 30
0.0
  0
VERTEX
  5
508
  8
0
  6
CONTINUOUS
 62
     7
 10
2222.729149790236
 20
2949.273456361448
 30
0.0
  0
VERTEX
  5
509
  8
0
  6
CONTINUOUS
 62
     7
 10
2222.723574886739
 20
2949.224316572228
 30
0.0
  0
VERTEX
  5
50A
  8
0
  6
CONTINUOUS
 62
     7
 10
2222.718199496906
 20
2949.175115665073
 30
0.0
  0
VERTEX
  5
50B
  8
0
  6
CONTINUOUS
 62
     7
 10
2222.712923863906
 20
2949.125884198949
 30
0.0
  0
SEQEND
  5
55D
  8
0
  6
CONTINUOUS
 62
     7
  0
LINE
  5
16A
  8
0
  6
CONTINUOUS
 62
     7
 10
2240.712923863906
 20
2951.125884198943
 30
0.0
 11
2224.712923863906
 21
2951.125884198931
 31
0.0
  0
POLYLINE
  5
16B
  8
0
  6
CONTINUOUS
 62
     7
 66
     1
 10
0.0
 20
0.0
 30
0.0
  0
VERTEX
  5
50C
  8
0
  6
CONTINUOUS
 62
     7
 10
2242.712923863907
 20
2949.125884198932
 30
0.0
  0
VERTEX
  5
50D
  8
0
  6
CONTINUOUS
 62
     7
 10
2242.70764863451
 20
2949.175115852747
 30
0.0
  0
VERTEX
  5
50E
  8
0
  6
CONTINUOUS
 62
     7
 10
2242.702273637924
 20
2949.224316942778
 30
0.0
  0
VERTEX
  5
50F
  8
0
  6
CONTINUOUS
 62
     7
 10
2242.696699106961
 20
2949.273456905241
 30
0.0
  0
VERTEX
  5
510
  8
0
  6
CONTINUOUS
 62
     7
 10
2242.690825274432
 20
2949.322505176352
 30
0.0
  0
VERTEX
  5
511
  8
0
  6
CONTINUOUS
 62
     7
 10
2242.684552373148
 20
2949.371431192328
 30
0.0
  0
VERTEX
  5
512
  8
0
  6
CONTINUOUS
 62
     7
 10
2242.677780635922
 20
2949.420204389385
 30
0.0
  0
VERTEX
  5
513
  8
0
  6
CONTINUOUS
 62
     7
 10
2242.670410295562
 20
2949.468794203737
 30
0.0
  0
VERTEX
  5
514
  8
0
  6
CONTINUOUS
 62
     7
 10
2242.662341584883
 20
2949.517170071602
 30
0.0
  0
VERTEX
  5
515
  8
0
  6
CONTINUOUS
 62
     7
 10
2242.653474736694
 20
2949.565301429196
 30
0.0
  0
VERTEX
  5
516
  8
0
  6
CONTINUOUS
 62
     7
 10
2242.643709983809
 20
2949.613157712735
 30
0.0
  0
VERTEX
  5
517
  8
0
  6
CONTINUOUS
 62
     7
 10
2242.632947559035
 20
2949.660708358434
 30
0.0
  0
VERTEX
  5
518
  8
0
  6
CONTINUOUS
 62
     7
 10
2242.621087695188
 20
2949.707922802511
 30
0.0
  0
VERTEX
  5
519
  8
0
  6
CONTINUOUS
 62
     7
 10
2242.608030625076
 20
2949.75477048118
 30
0.0
  0
VERTEX
  5
51A
  8
0
  6
CONTINUOUS
 62
     7
 10
2242.593676581512
 20
2949.80122083066
 30
0.0
  0
VERTEX
  5
51B
  8
0
  6
CONTINUOUS
 62
     7
 10
2242.577925797308
 20
2949.847243287164
 30
0.0
  0
VERTEX
  5
51C
  8
0
  6
CONTINUOUS
 62
     7
 10
2242.560687403212
 20
2949.892807658272
 30
0.0
  0
VERTEX
  5
51D
  8
0
  6
CONTINUOUS
 62
     7
 10
2242.541970667136
 20
2949.937887930868
 30
0.0
  0
VERTEX
  5
51E
  8
0
  6
CONTINUOUS
 62
     7
 10
2242.521847927761
 20
2949.982460724147
 30
0.0
  0
VERTEX
  5
51F
  8
0
  6
CONTINUOUS
 62
     7
 10
2242.500392508139
 20
2950.026502698385
 30
0.0
  0
VERTEX
  5
520
  8
0
  6
CONTINUOUS
 62
     7
 10
2242.477677731322
 20
2950.069990513861
 30
0.0
  0
VERTEX
  5
521
  8
0
  6
CONTINUOUS
 62
     7
 10
2242.453776920362
 20
2950.112900830853
 30
0.0
  0
VERTEX
  5
522
  8
0
  6
CONTINUOUS
 62
     7
 10
2242.428763398307
 20
2950.155210309635
 30
0.0
  0
VERTEX
  5
523
  8
0
  6
CONTINUOUS
 62
     7
 10
2242.402710488212
 20
2950.196895610488
 30
0.0
  0
VERTEX
  5
524
  8
0
  6
CONTINUOUS
 62
     7
 10
2242.375691065663
 20
2950.237933391855
 30
0.0
  0
VERTEX
  5
525
  8
0
  6
CONTINUOUS
 62
     7
 10
2242.347752989621
 20
2950.278300209644
 30
0.0
  0
VERTEX
  5
526
  8
0
  6
CONTINUOUS
 62
     7
 10
2242.318906361061
 20
2950.317972465006
 30
0.0
  0
VERTEX
  5
527
  8
0
  6
CONTINUOUS
 62
     7
 10
2242.289158149071
 20
2950.356926546259
 30
0.0
  0
VERTEX
  5
528
  8
0
  6
CONTINUOUS
 62
     7
 10
2242.258515322737
 20
2950.395138841716
 30
0.0
  0
VERTEX
  5
529
  8
0
  6
CONTINUOUS
 62
     7
 10
2242.226984851145
 20
2950.432585739693
 30
0.0
  0
VERTEX
  5
52A
  8
0
  6
CONTINUOUS
 62
     7
 10
2242.194573703384
 20
2950.469243628505
 30
0.0
  0
VERTEX
  5
52B
  8
0
  6
CONTINUOUS
 62
     7
 10
2242.16128884854
 20
2950.505088896469
 30
0.0
  0
VERTEX
  5
52C
  8
0
  6
CONTINUOUS
 62
     7
 10
2242.127137255699
 20
2950.540097931898
 30
0.0
  0
VERTEX
  5
52D
  8
0
  6
CONTINUOUS
 62
     7
 10
2242.092128662899
 20
2950.574249901924
 30
0.0
  0
VERTEX
  5
52E
  8
0
  6
CONTINUOUS
 62
     7
 10
2242.056283883809
 20
2950.607535088776
 30
0.0
  0
VERTEX
  5
52F
  8
0
  6
CONTINUOUS
 62
     7
 10
2242.019626500969
 20
2950.639946553421
 30
0.0
  0
VERTEX
  5
530
  8
0
  6
CONTINUOUS
 62
     7
 10
2241.982180096914
 20
2950.671477356818
 30
0.0
  0
VERTEX
  5
531
  8
0
  6
CONTINUOUS
 62
     7
 10
2241.943968254184
 20
2950.702120559934
 30
0.0
  0
VERTEX
  5
532
  8
0
  6
CONTINUOUS
 62
     7
 10
2241.905014555316
 20
2950.731869223728
 30
0.0
  0
VERTEX
  5
533
  8
0
  6
CONTINUOUS
 62
     7
 10
2241.865342582849
 20
2950.760716409168
 30
0.0
  0
VERTEX
  5
534
  8
0
  6
CONTINUOUS
 62
     7
 10
2241.824975919321
 20
2950.788655177216
 30
0.0
  0
VERTEX
  5
535
  8
0
  6
CONTINUOUS
 62
     7
 10
2241.783938136677
 20
2950.815675300253
 30
0.0
  0
VERTEX
  5
536
  8
0
  6
CONTINUOUS
 62
     7
 10
2241.742252684169
 20
2950.841728457528
 30
0.0
  0
VERTEX
  5
537
  8
0
  6
CONTINUOUS
 62
     7
 10
2241.699942932102
 20
2950.866741816803
 30
0.0
  0
VERTEX
  5
538
  8
0
  6
CONTINUOUS
 62
     7
 10
2241.657032249473
 20
2950.89064214021
 30
0.0
  0
VERTEX
  5
539
  8
0
  6
CONTINUOUS
 62
     7
 10
2241.613544005281
 20
2950.913356189882
 30
0.0
  0
VERTEX
  5
53A
  8
0
  6
CONTINUOUS
 62
     7
 10
2241.569501568522
 20
2950.93481072795
 30
0.0
  0
VERTEX
  5
53B
  8
0
  6
CONTINUOUS
 62
     7
 10
2241.524928308195
 20
2950.954932516549
 30
0.0
  0
VERTEX
  5
53C
  8
0
  6
CONTINUOUS
 62
     7
 10
2241.479847593298
 20
2950.973648317812
 30
0.0
  0
VERTEX
  5
53D
  8
0
  6
CONTINUOUS
 62
     7
 10
2241.434282833716
 20
2950.990885877694
 30
0.0
  0
VERTEX
  5
53E
  8
0
  6
CONTINUOUS
 62
     7
 10
2241.388260059226
 20
2951.006635978115
 30
0.0
  0
VERTEX
  5
53F
  8
0
  6
CONTINUOUS
 62
     7
 10
2241.341809459184
 20
2951.02098948288
 30
0.0
  0
VERTEX
  5
540
  8
0
  6
CONTINUOUS
 62
     7
 10
2241.29496159256
 20
2951.034046148822
 30
0.0
  0
VERTEX
  5
541
  8
0
  6
CONTINUOUS
 62
     7
 10
2241.24774701832
 20
2951.045905732773
 30
0.0
  0
VERTEX
  5
542
  8
0
  6
CONTINUOUS
 62
     7
 10
2241.200196295432
 20
2951.056667991565
 30
0.0
  0
VERTEX
  5
543
  8
0
  6
CONTINUOUS
 62
     7
 10
2241.152339982867
 20
2951.066432682032
 30
0.0
  0
VERTEX
  5
544
  8
0
  6
CONTINUOUS
 62
     7
 10
2241.104208639589
 20
2951.075299561005
 30
0.0
  0
VERTEX
  5
545
  8
0
  6
CONTINUOUS
 62
     7
 10
2241.055832824567
 20
2951.083368385317
 30
0.0
  0
VERTEX
  5
546
  8
0
  6
CONTINUOUS
 62
     7
 10
2241.00724309677
 20
2951.090738911801
 30
0.0
  0
VERTEX
  5
547
  8
0
  6
CONTINUOUS
 62
     7
 10
2240.958470015165
 20
2951.097510897291
 30
0.0
  0
VERTEX
  5
548
  8
0
  6
CONTINUOUS
 62
     7
 10
2240.909544138722
 20
2951.103784098616
 30
0.0
  0
VERTEX
  5
549
  8
0
  6
CONTINUOUS
 62
     7
 10
2240.860496026406
 20
2951.109658272612
 30
0.0
  0
VERTEX
  5
54A
  8
0
  6
CONTINUOUS
 62
     7
 10
2240.811356237186
 20
2951.11523317611
 30
0.0
  0
VERTEX
  5
54B
  8
0
  6
CONTINUOUS
 62
     7
 10
2240.76215533003
 20
2951.120608565943
 30
0.0
  0
VERTEX
  5
54C
  8
0
  6
CONTINUOUS
 62
     7
 10
2240.712923863906
 20
2951.125884198943
 30
0.0
  0
SEQEND
  5
55E
  8
0
  6
CONTINUOUS
 62
     7
  0
LINE
  5
16C
  8
0
  6
CONTINUOUS
 62
     7
 10
2221.712923863906
 20
2948.925884198949
 30
0.0
 11
2221.712923863906
 21
2949.12588419895
 31
0.0
  0
LINE
  5
16D
  8
0
  6
CONTINUOUS
 62
     7
 10
2221.712923863906
 20
2949.12588419895
 30
0.0
 11
2222.712923863905
 21
2949.125884198949
 31
0.0
  0
LINE
  5
16E
  8
0
  6
CONTINUOUS
 62
     7
 10
2243.712923863908
 20
2948.925884198942
 30
0.0
 11
2243.712923863907
 21
2949.125884198942
 31
0.0
  0
LINE
  5
16F
  8
0
  6
CONTINUOUS
 62
     7
 10
2242.712923863907
 20
2949.125884198932
 30
0.0
 11
2243.712923863907
 21
2949.125884198942
 31
0.0
  0
ARC
  5
170
  8
0
  6
CONTINUOUS
 62
     7
 10
2224.712923863905
 20
2949.125884198931
 30
0.0
 40
2.999999999999566
 50
129.9445051893126
 51
179.9999999996437
  0
ARC
  5
171
  8
0
  6
CONTINUOUS
 62
     7
 10
2240.712923863907
 20
2949.125884198941
 30
0.0
 40
3.0
 50
0.0000000000295323
 51
50.05549481038494
  0
LINE
  5
172
  8
0
  6
CONTINUOUS
 62
     7
 10
2221.712923863906
 20
2949.425884198949
 30
0.0
 11
2207.525249110113
 21
2949.42588419895
 31
0.0
  0
LINE
  5
173
  8
0
  6
CONTINUOUS
 62
     7
 10
2207.525249110113
 20
2949.42588419895
 30
0.0
 11
2207.525249110113
 21
2948.925884198947
 31
0.0
  0
LINE
  5
174
  8
0
  6
CONTINUOUS
 62
     7
 10
2221.712923863906
 20
2949.125884198949
 30
0.0
 11
2221.712923863906
 21
2949.425884198949
 31
0.0
  0
LINE
  5
175
  8
0
  6
CONTINUOUS
 62
     7
 10
2219.6764282633
 20
2951.425884198948
 30
0.0
 11
2219.630323551332
 21
2949.425884198942
 31
0.0
  0
LINE
  5
176
  8
0
  6
CONTINUOUS
 62
     7
 10
2220.93066892268
 20
2949.425884198941
 30
0.0
 11
2220.976773634648
 21
2951.425884198948
 31
0.0
  0
LINE
  5
177
  8
0
  6
CONTINUOUS
 62
     7
 10
2369.212923859568
 20
2950.925884198948
 30
0.0
 11
2369.212923859568
 21
2948.925884198948
 31
0.0
  0
LINE
  5
178
  8
0
  6
CONTINUOUS
 62
     7
 10
2409.212923859568
 20
2950.925884198948
 30
0.0
 11
2409.212923859568
 21
2948.925884198948
 31
0.0
  0
LINE
  5
179
  8
0
  6
CONTINUOUS
 62
     7
 10
2369.212923859568
 20
2950.925884198948
 30
0.0
 11
2409.212923859568
 21
2950.925884198948
 31
0.0
  0
LINE
  5
17A
  8
0
  6
CONTINUOUS
 62
     7
 10
2575.212923859568
 20
2948.925884198948
 30
0.0
 11
2203.212923859568
 21
2948.925884198948
 31
0.0
  0
LINE
  5
17B
  8
0
  6
CONTINUOUS
 62
     7
 10
2575.212923859568
 20
2930.925884198948
 30
0.0
 11
2203.212923859568
 21
2930.925884198948
 31
0.0
  0
LINE
  5
17C
  8
0
  6
CONTINUOUS
 62
     7
 10
2203.212923859568
 20
2930.925884198948
 30
0.0
 11
2203.212923859568
 21
2948.925884198948
 31
0.0
  0
LINE
  5
17D
  8
0
  6
CONTINUOUS
 62
     7
 10
2575.212923859568
 20
2930.925884198948
 30
0.0
 11
2575.212923859568
 21
2948.925884198948
 31
0.0
  0
LINE
  5
17E
  8
0
  6
CONTINUOUS
 62
     7
 10
2576.712923859568
 20
2950.925884198948
 30
0.0
 11
2576.712923859568
 21
3080.925884198948
 31
0.0
  0
LINE
  5
17F
  8
0
  6
CONTINUOUS
 62
     7
 10
2576.712923859568
 20
2950.925884198948
 30
0.0
 11
2559.212923859568
 21
2950.925884198948
 31
0.0
  0
LINE
  5
180
  8
0
  6
CONTINUOUS
 62
     7
 10
2559.212923859568
 20
2950.925884198948
 30
0.0
 11
2559.212923859568
 21
3080.925884198948
 31
0.0
  0
LINE
  5
181
  8
0
  6
CONTINUOUS
 62
     7
 10
2576.712923859568
 20
3080.925884198948
 30
0.0
 11
2559.212923859568
 21
3080.925884198948
 31
0.0
  0
LINE
  5
182
  8
0
  6
CONTINUOUS
 62
     7
 10
2219.212923859568
 20
2950.925884198948
 30
0.0
 11
2219.212923859568
 21
3080.925884198948
 31
0.0
  0
LINE
  5
183
  8
0
  6
CONTINUOUS
 62
     7
 10
2219.212923859568
 20
2950.925884198948
 30
0.0
 11
2201.712923859568
 21
2950.925884198948
 31
0.0
  0
LINE
  5
184
  8
0
  6
CONTINUOUS
 62
     7
 10
2219.212923859568
 20
3080.925884198948
 30
0.0
 11
2201.712923859568
 21
3080.925884198948
 31
0.0
  0
LINE
  5
185
  8
0
  6
CONTINUOUS
 62
     7
 10
2201.712923859568
 20
2950.925884198948
 30
0.0
 11
2201.712923859568
 21
3080.925884198948
 31
0.0
  0
LINE
  5
186
  8
0
  6
CONTINUOUS
 62
     7
 10
2559.212923859568
 20
3080.925884198948
 30
0.0
 11
2219.212923859568
 21
3080.925884198948
 31
0.0
  0
LINE
  5
187
  8
0
  6
CONTINUOUS
 62
     7
 10
2559.212923859568
 20
2951.425884198948
 30
0.0
 11
2219.212923859568
 21
2951.425884198948
 31
0.0
  0
LINE
  5
188
  8
0
  6
CONTINUOUS
 62
     8
 10
2240.712923863906
 20
2951.125884198943
 30
0.0
 11
2240.712923863906
 21
2951.425884198948
 31
0.0
  0
LINE
  5
189
  8
0
  6
CONTINUOUS
 62
     8
 10
2224.712923863906
 20
2951.425884198948
 30
0.0
 11
2224.712923863906
 21
2951.125884198931
 31
0.0
  0
ENDSEC
  0
EOF
