  0
SECTION
  2
HEADER
  9
$ACADVER
  1
AC1006
  9
$DWGCODEPAGE
  3
ansi_932
  9
$INSBASE
 10
0.0
 20
0.0
 30
0.0
  9
$EXTMIN
 10
677.5098251208341
 20
165.7088516276313
  9
$EXTMAX
 10
4801.663086450988
 20
3013.232765703866
  9
$LIMMIN
 10
0.0
 20
0.0
  9
$LIMMAX
 10
5000.0
 20
3500.0
  9
$ORTHOMODE
 70
     0
  9
$REGENMODE
 70
     1
  9
$FILLMODE
 70
     1
  9
$QTEXTMODE
 70
     0
  9
$MIRRTEXT
 70
     1
  9
$DRAGMODE
 70
     2
  9
$LTSCALE
 40
1.0
  9
$OSMODE
 70
    37
  9
$ATTMODE
 70
     1
  9
$TEXTSIZE
 40
3.5
  9
$TRACEWID
 40
1.0
  9
$TEXTSTYLE
  7
STANDARD
  9
$CLAYER
  8
0
  9
$CELTYPE
  6
BYLAYER
  9
$CECOLOR
 62
   256
  9
$DIMSCALE
 40
1.0
  9
$DIMASZ
 40
3.302
  9
$DIMEXO
 40
1.0
  9
$DIMDLI
 40
3.75
  9
$DIMRND
 40
0.0
  9
$DIMDLE
 40
0.0
  9
$DIMEXE
 40
1.0
  9
$DIMTP
 40
0.0
  9
$DIMTM
 40
0.0
  9
$DIMTXT
 40
3.5
  9
$DIMCEN
 40
2.5
  9
$DIMTSZ
 40
0.0
  9
$DIMTOL
 70
     0
  9
$DIMLIM
 70
     0
  9
$DIMTIH
 70
     1
  9
$DIMTOH
 70
     1
  9
$DIMSE1
 70
     0
  9
$DIMSE2
 70
     0
  9
$DIMTAD
 70
     1
  9
$DIMZIN
 70
     0
  9
$DIMBLK
  1

  9
$DIMASO
 70
     1
  9
$DIMSHO
 70
     1
  9
$DIMPOST
  1

  9
$DIMAPOST
  1

  9
$DIMALT
 70
     0
  9
$DIMALTD
 70
     3
  9
$DIMALTF
 40
0.0393700787401575
  9
$DIMLFAC
 40
1.0
  9
$DIMTOFL
 70
     1
  9
$DIMTVP
 40
0.0
  9
$DIMTIX
 70
     0
  9
$DIMSOXD
 70
     0
  9
$DIMSAH
 70
     0
  9
$DIMBLK1
  1

  9
$DIMBLK2
  1

  9
$LUNITS
 70
     2
  9
$LUPREC
 70
     3
  9
$SKETCHINC
 40
1.0
  9
$FILLETRAD
 40
10.0
  9
$AUNITS
 70
     0
  9
$AUPREC
 70
     2
  9
$MENU
  1
.
  9
$ELEVATION
 40
0.0
  9
$THICKNESS
 40
0.0
  9
$LIMCHECK
 70
     0
  9
$CHAMFERA
 40
0.0
  9
$CHAMFERB
 40
0.0
  9
$SKPOLY
 70
     0
  9
$TDCREATE
 40
2459868.339318773
  9
$TDUPDATE
 40
2460139.217091412
  9
$TDINDWG
 40
0.0007507523
  9
$TDUSRTIMER
 40
0.0007507523
  9
$USRTIMER
 70
     1
  9
$ANGBASE
 50
0.0
  9
$ANGDIR
 70
     0
  9
$PDMODE
 70
     0
  9
$PDSIZE
 40
-1.0
  9
$PLINEWID
 40
0.0
  9
$COORDS
 70
     1
  9
$SPLFRAME
 70
     0
  9
$SPLINETYPE
 70
     6
  9
$SPLINESEGS
 70
     8
  9
$ATTDIA
 70
     0
  9
$ATTREQ
 70
     1
  9
$HANDLING
 70
     1
  9
$HANDSEED
  5
688
  9
$SURFTAB1
 70
     6
  9
$SURFTAB2
 70
     6
  9
$SURFTYPE
 70
     6
  9
$SURFU
 70
     6
  9
$SURFV
 70
     6
  9
$UCSNAME
  2

  9
$UCSORG
 10
0.0
 20
0.0
 30
0.0
  9
$UCSXDIR
 10
1.0
 20
0.0
 30
0.0
  9
$UCSYDIR
 10
0.0
 20
1.0
 30
0.0
  9
$USERI1
 70
     0
  9
$USERI2
 70
     0
  9
$USERI3
 70
     0
  9
$USERI4
 70
     0
  9
$USERI5
 70
     0
  9
$USERR1
 40
0.0
  9
$USERR2
 40
0.0
  9
$USERR3
 40
0.0
  9
$USERR4
 40
0.0
  9
$USERR5
 40
0.0
  9
$WORLDVIEW
 70
     1
  0
ENDSEC
  0
SECTION
  2
TABLES
  0
TABLE
  2
VPORT
 70
     1
  0
VPORT
  2
*ACTIVE
 70
     0
 10
0.0
 20
0.0
 11
1.0
 21
1.0
 12
2890.385695212529
 22
1718.513487226808
 13
0.0
 23
0.0
 14
10.0
 24
10.0
 15
10.0
 25
10.0
 16
0.0
 26
0.0
 36
1.0
 17
0.0
 27
0.0
 37
0.0
 40
3332.817382954835
 41
2.235364396654719
 42
50.0
 43
0.0
 44
0.0
 50
0.0
 51
0.0
 71
     0
 72
  2000
 73
     1
 74
     3
 75
     0
 76
     0
 77
     0
 78
     0
  0
ENDTAB
  0
TABLE
  2
LTYPE
 70
     6
  0
LTYPE
  2
CONTINUOUS
 70
     0
  3
Solid line
 72
    65
 73
     0
 40
0.0
  0
LTYPE
  2
HIDDEN
 70
     0
  3
Hidden __ __ __ __ __ __ __ __ __ __ __ __ __ __
 72
    65
 73
     2
 40
1.905
 49
1.27
 49
-0.635
  0
LTYPE
  2
PHANTOM
 70
     0
  3
Phantom ______  __  __  ______  __  __  ______
 72
    65
 73
     6
 40
12.7
 49
6.35
 49
-1.27
 49
1.27
 49
-1.27
 49
1.27
 49
-1.27
  0
LTYPE
  2
CENTER
 70
     0
  3
Center ____ _ ____ _ ____ _ ____ _ ____ _ ____
 72
    65
 73
     4
 40
10.16
 49
6.35
 49
-1.27
 49
1.27
 49
-1.27
  0
LTYPE
  2
CENTERX2
 70
     0
  3
Center (2x) ________  __  ________  __  _____
 72
    65
 73
     4
 40
20.32
 49
12.7
 49
-2.54
 49
2.54
 49
-2.54
  0
LTYPE
  2
DOT2
 70
     0
  3
Dot (.5x) ........................................
 72
    65
 73
     2
 40
0.635
 49
0.0
 49
-0.635
  0
ENDTAB
  0
TABLE
  2
LAYER
 70
     3
  0
LAYER
  2
0
 70
     0
 62
     7
  6
CONTINUOUS
  0
LAYER
  2
SLD-0
 70
     0
 62
   179
  6
CONTINUOUS
  0
LAYER
  2
寸法
 70
     0
 62
   179
  6
CONTINUOUS
  0
ENDTAB
  0
TABLE
  2
STYLE
 70
     2
  0
STYLE
  2
STANDARD
 70
     0
 40
0.0
 41
1.0
 50
0.0
 71
     0
 42
3.5
  3
txt
  4
bigfont
  0
STYLE
  2
SLDTEXTSTYLE0
 70
     0
 40
0.0
 41
0.75
 50
0.0
 71
     0
 42
3.5
  3
TXT
  4
bigfont
  0
ENDTAB
  0
TABLE
  2
VIEW
 70
     0
  0
ENDTAB
  0
TABLE
  2
UCS
 70
     0
  0
ENDTAB
  0
ENDSEC
  0
SECTION
  2
BLOCKS
  0
ENDSEC
  0
SECTION
  2
ENTITIES
  0
LINE
  5
75
  8
0
  6
CONTINUOUS
 62
     7
 10
4801.663086450988
 20
279.1403827252221
 30
0.0
 11
3345.906222050112
 21
279.1403827252221
 31
0.0
  0
TEXT
  5
77
  8
0
  6
CONTINUOUS
 62
     7
 10
1982.495570885822
 20
1945.034307062798
 30
0.0
 40
52.91666666666666
  1
＜正面＞
 41
0.75
  7
SLDTEXTSTYLE0
  0
TEXT
  5
78
  8
0
  6
CONTINUOUS
 62
     7
 10
3377.814243189123
 20
326.489054196763
 30
0.0
 40
52.91666666666666
  1
品名：
 41
0.75
  7
SLDTEXTSTYLE0
  0
TEXT
  5
79
  8
0
  6
CONTINUOUS
 62
     7
 10
4446.663437481703
 20
332.3177187478654
 30
0.0
 40
52.91666666666666
  1
Pamouna
 41
0.75
  7
SLDTEXTSTYLE0
  0
TEXT
  5
7A
  8
寸法
  6
CONTINUOUS
 62
     7
 10
4688.007304885427
 20
165.7088516276312
 30
0.0
 40
52.91666666666666
  1
1/1
 41
0.75
  7
SLDTEXTSTYLE0
  0
TEXT
  5
7B
  8
寸法
  6
CONTINUOUS
 62
     7
 10
3611.283129349216
 20
332.2465883182592
 30
0.0
 40
66.14583333333331
  1
MA-N751EM
 41
0.75
  7
SLDTEXTSTYLE0
  0
TEXT
  5
7C
  8
寸法
  6
CONTINUOUS
 62
     7
 10
4198.79693921183
 20
165.7088544215994
 30
0.0
 40
52.91666666666666
  1
2022/10/15
 41
0.75
  7
SLDTEXTSTYLE0
  0
TEXT
  5
7D
  8
寸法
  6
CONTINUOUS
 62
     7
 10
3662.466593051836
 20
1949.98353978493
 30
0.0
 40
52.91666666666666
  1
＜右側面＞
 41
0.75
  7
SLDTEXTSTYLE0
  0
TEXT
  5
7E
  8
0
  6
CONTINUOUS
 62
     7
 10
669.5723251208341
 20
1945.034307062798
 30
0.0
 40
52.91666666666666
  1
＜左側面＞
 41
0.75
  7
SLDTEXTSTYLE0
  0
TEXT
  5
7F
  8
0
  6
CONTINUOUS
 62
     7
 10
1991.208599953329
 20
2960.316099037199
 30
0.0
 40
52.91666666666666
  1
＜上面＞
 41
0.75
  7
SLDTEXTSTYLE0
  0
LINE
  5
80
  8
0
  6
CONTINUOUS
 62
     7
 10
2426.441905018051
 20
1777.237963038813
 30
0.0
 11
2054.441905018051
 21
1777.237963038813
 31
0.0
  0
LINE
  5
81
  8
0
  6
CONTINUOUS
 62
     7
 10
2426.441905018051
 20
1181.237963038812
 30
0.0
 11
2426.441905018051
 21
1777.237963038813
 31
0.0
  0
LINE
  5
82
  8
0
  6
CONTINUOUS
 62
     7
 10
2054.441905018051
 20
1181.237963038812
 30
0.0
 11
2426.441905018051
 21
1181.237963038812
 31
0.0
  0
LINE
  5
83
  8
0
  6
CONTINUOUS
 62
     7
 10
2054.441905018051
 20
1777.237963038813
 30
0.0
 11
2054.441905018051
 21
1181.237963038812
 31
0.0
  0
LINE
  5
84
  8
0
  6
CONTINUOUS
 62
     7
 10
2429.44190501805
 20
1181.237963038812
 30
0.0
 11
2801.441905018051
 21
1181.237963038812
 31
0.0
  0
LINE
  5
85
  8
0
  6
CONTINUOUS
 62
     7
 10
2429.44190501805
 20
1777.237963038812
 30
0.0
 11
2429.44190501805
 21
1181.237963038812
 31
0.0
  0
LINE
  5
86
  8
0
  6
CONTINUOUS
 62
     7
 10
2801.441905018051
 20
1777.237963038812
 30
0.0
 11
2429.44190501805
 21
1777.237963038812
 31
0.0
  0
LINE
  5
87
  8
0
  6
CONTINUOUS
 62
     7
 10
2801.441905018051
 20
1181.237963038812
 30
0.0
 11
2801.441905018051
 21
1777.237963038812
 31
0.0
  0
LINE
  5
88
  8
0
  6
CONTINUOUS
 62
     7
 10
2802.941905018051
 20
1779.237963038812
 30
0.0
 11
2785.441905018051
 21
1779.237963038812
 31
0.0
  0
LINE
  5
89
  8
0
  6
CONTINUOUS
 62
     7
 10
2802.941905018051
 20
1179.237963038812
 30
0.0
 11
2802.941905018051
 21
1779.237963038812
 31
0.0
  0
LINE
  5
8A
  8
0
  6
CONTINUOUS
 62
     7
 10
2785.441905018051
 20
1179.237963038812
 30
0.0
 11
2802.941905018051
 21
1179.237963038812
 31
0.0
  0
LINE
  5
8B
  8
0
  6
CONTINUOUS
 62
     7
 10
2785.441905018051
 20
1779.237963038812
 30
0.0
 11
2785.441905018051
 21
1777.237963038812
 31
0.0
  0
LINE
  5
8C
  8
0
  6
CONTINUOUS
 62
     7
 10
2785.441905018051
 20
1181.237963038812
 30
0.0
 11
2785.441905018051
 21
1179.237963038812
 31
0.0
  0
LINE
  5
8D
  8
0
  6
CONTINUOUS
 62
     7
 10
2052.941905018051
 20
1779.237963038812
 30
0.0
 11
2052.941905018051
 21
1179.237963038812
 31
0.0
  0
LINE
  5
8E
  8
0
  6
CONTINUOUS
 62
     7
 10
2070.441905018051
 20
1779.237963038812
 30
0.0
 11
2052.941905018051
 21
1779.237963038812
 31
0.0
  0
LINE
  5
8F
  8
0
  6
CONTINUOUS
 62
     7
 10
2070.441905018051
 20
1179.237963038812
 30
0.0
 11
2070.441905018051
 21
1181.237963038812
 31
0.0
  0
LINE
  5
90
  8
0
  6
CONTINUOUS
 62
     7
 10
2070.441905018051
 20
1777.237963038813
 30
0.0
 11
2070.441905018051
 21
1779.237963038812
 31
0.0
  0
LINE
  5
91
  8
0
  6
CONTINUOUS
 62
     7
 10
2052.941905018051
 20
1179.237963038812
 30
0.0
 11
2070.441905018051
 21
1179.237963038812
 31
0.0
  0
LINE
  5
92
  8
0
  6
CONTINUOUS
 62
     7
 10
2429.44190501805
 20
1487.567690992841
 30
0.0
 11
2426.441905018051
 21
1487.567690992841
 31
0.0
  0
LINE
  5
93
  8
0
  6
CONTINUOUS
 62
     7
 10
2426.441905018051
 20
1470.567690992841
 30
0.0
 11
2429.441905018051
 21
1470.567690992841
 31
0.0
  0
LINE
  5
94
  8
0
  6
CONTINUOUS
 62
     7
 10
2429.44190501805
 20
1425.81860907065
 30
0.0
 11
2426.441905018051
 21
1425.81860907065
 31
0.0
  0
LINE
  5
95
  8
0
  6
CONTINUOUS
 62
     7
 10
2426.441905018051
 20
1408.81860907065
 30
0.0
 11
2429.441905018051
 21
1408.81860907065
 31
0.0
  0
LINE
  5
96
  8
0
  6
CONTINUOUS
 62
     7
 10
2426.441905018051
 20
1197.487963038812
 30
0.0
 11
2429.44190501805
 21
1197.487963038812
 31
0.0
  0
LINE
  5
97
  8
0
  6
CONTINUOUS
 62
     7
 10
2429.44190501805
 20
1760.987963038812
 30
0.0
 11
2426.441905018051
 21
1760.987963038812
 31
0.0
  0
LINE
  5
98
  8
0
  6
CONTINUOUS
 62
     7
 10
2429.44190501805
 20
1197.237963038812
 30
0.0
 11
2426.441905018051
 21
1197.237963038812
 31
0.0
  0
LINE
  5
99
  8
0
  6
CONTINUOUS
 62
     7
 10
2785.441905018047
 20
1179.737963038812
 30
0.0
 11
2070.441905018047
 21
1179.737963038812
 31
0.0
  0
LINE
  5
9A
  8
0
  6
CONTINUOUS
 62
     7
 10
2429.44190501805
 20
1761.237963038812
 30
0.0
 11
2426.441905018051
 21
1761.237963038812
 31
0.0
  0
LINE
  5
9B
  8
0
  6
CONTINUOUS
 62
     7
 10
2785.441905018051
 20
1778.737963038812
 30
0.0
 11
2070.441905018051
 21
1778.737963038812
 31
0.0
  0
LINE
  5
9C
  8
0
  6
CONTINUOUS
 62
     7
 10
902.0371090749852
 20
1777.237963038813
 30
0.0
 11
902.0371090749852
 21
1181.237963038812
 31
0.0
  0
LINE
  5
9D
  8
0
  6
CONTINUOUS
 62
     7
 10
898.7371090749853
 20
1777.237963038813
 30
0.0
 11
898.7371090749853
 21
1181.237963038812
 31
0.0
  0
LINE
  5
9E
  8
0
  6
CONTINUOUS
 62
     7
 10
902.0371090749852
 20
1777.237963038813
 30
0.0
 11
898.7371090749853
 21
1777.237963038813
 31
0.0
  0
LINE
  5
9F
  8
0
  6
CONTINUOUS
 62
     7
 10
902.0371090749852
 20
1181.237963038812
 30
0.0
 11
898.7371090749853
 21
1181.237963038812
 31
0.0
  0
LINE
  5
A0
  8
0
  6
CONTINUOUS
 62
     7
 10
898.7371090749853
 20
1777.237963038813
 30
0.0
 11
883.7371090749853
 21
1777.237963038813
 31
0.0
  0
LINE
  5
A1
  8
0
  6
CONTINUOUS
 62
     7
 10
898.7371090749853
 20
1181.237963038813
 30
0.0
 11
883.7371090749853
 21
1181.237963038813
 31
0.0
  0
LINE
  5
A2
  8
0
  6
CONTINUOUS
 62
     7
 10
883.7371090749853
 20
1777.237963038813
 30
0.0
 11
883.7371090749853
 21
1181.237963038813
 31
0.0
  0
LINE
  5
A3
  8
0
  6
CONTINUOUS
 62
     7
 10
881.7371090749853
 20
1779.237963038812
 30
0.0
 11
751.7371090749853
 21
1779.237963038812
 31
0.0
  0
LINE
  5
A4
  8
0
  6
CONTINUOUS
 62
     7
 10
881.7371090749853
 20
1779.237963038812
 30
0.0
 11
881.7371090749853
 21
1179.237963038812
 31
0.0
  0
LINE
  5
A5
  8
0
  6
CONTINUOUS
 62
     7
 10
881.7371090749853
 20
1179.237963038812
 30
0.0
 11
751.7371090749853
 21
1179.237963038812
 31
0.0
  0
LINE
  5
A6
  8
0
  6
CONTINUOUS
 62
     7
 10
751.7371090749853
 20
1779.237963038812
 30
0.0
 11
751.7371090749853
 21
1179.237963038812
 31
0.0
  0
LINE
  5
A7
  8
0
  6
CONTINUOUS
 62
     7
 10
881.8719241499249
 20
1705.612963038811
 30
0.0
 11
881.8719241499243
 21
1704.68796303881
 31
0.0
  0
LINE
  5
A8
  8
0
  6
CONTINUOUS
 62
     7
 10
881.8719241499156
 20
1689.787963038809
 30
0.0
 11
881.871924149915
 21
1688.86296303881
 31
0.0
  0
LINE
  5
A9
  8
0
  6
CONTINUOUS
 62
     7
 10
881.871924149915
 20
1688.86296303881
 30
0.0
 11
881.7371090749785
 21
1688.86296303881
 31
0.0
  0
LINE
  5
AA
  8
0
  6
CONTINUOUS
 62
     7
 10
881.7371090749785
 20
1705.612963038811
 30
0.0
 11
881.8719241499249
 21
1705.612963038811
 31
0.0
  0
LINE
  5
AB
  8
0
  6
CONTINUOUS
 62
     7
 10
883.2371090749859
 20
1688.86296303881
 30
0.0
 11
881.871924149915
 21
1688.86296303881
 31
0.0
  0
LINE
  5
AC
  8
0
  6
CONTINUOUS
 62
     7
 10
881.8719241499249
 20
1705.612963038811
 30
0.0
 11
883.2371090749759
 21
1705.612963038811
 31
0.0
  0
LINE
  5
AD
  8
0
  6
CONTINUOUS
 62
     7
 10
881.871924149925
 20
1269.612963038811
 30
0.0
 11
881.8719241499244
 21
1268.68796303881
 31
0.0
  0
LINE
  5
AE
  8
0
  6
CONTINUOUS
 62
     7
 10
881.8719241499157
 20
1253.787963038809
 30
0.0
 11
881.8719241499151
 21
1252.86296303881
 31
0.0
  0
LINE
  5
AF
  8
0
  6
CONTINUOUS
 62
     7
 10
881.8719241499151
 20
1252.86296303881
 30
0.0
 11
881.7371090749785
 21
1252.86296303881
 31
0.0
  0
LINE
  5
B0
  8
0
  6
CONTINUOUS
 62
     7
 10
881.7371090749785
 20
1269.612963038811
 30
0.0
 11
881.871924149925
 21
1269.612963038811
 31
0.0
  0
LINE
  5
B1
  8
0
  6
CONTINUOUS
 62
     7
 10
883.237109074986
 20
1252.862963038811
 30
0.0
 11
881.8719241499151
 21
1252.86296303881
 31
0.0
  0
LINE
  5
B2
  8
0
  6
CONTINUOUS
 62
     7
 10
881.871924149925
 20
1269.612963038811
 30
0.0
 11
883.2371090749759
 21
1269.612963038811
 31
0.0
  0
LINE
  5
B3
  8
0
  6
CONTINUOUS
 62
     7
 10
883.2371090749759
 20
1706.19392117787
 30
0.0
 11
883.7371090749853
 21
1706.19392117787
 31
0.0
  0
LINE
  5
B4
  8
0
  6
CONTINUOUS
 62
     7
 10
883.2371090749757
 20
1704.637963038577
 30
0.0
 11
883.7371090749756
 21
1704.637963038577
 31
0.0
  0
LINE
  5
B5
  8
0
  6
CONTINUOUS
 62
     7
 10
883.2371090749757
 20
1704.637963038577
 30
0.0
 11
883.2371090749759
 21
1706.19392117787
 31
0.0
  0
LINE
  5
B6
  8
0
  6
CONTINUOUS
 62
     7
 10
883.7371090749853
 20
1688.282004899741
 30
0.0
 11
883.2371090749826
 21
1688.282004899743
 31
0.0
  0
LINE
  5
B7
  8
0
  6
CONTINUOUS
 62
     7
 10
883.2371090749826
 20
1688.282004899743
 30
0.0
 11
883.2371090749914
 21
1689.837963039029
 31
0.0
  0
LINE
  5
B8
  8
0
  6
CONTINUOUS
 62
     7
 10
883.7371090749914
 20
1689.837963039029
 30
0.0
 11
883.2371090749914
 21
1689.837963039029
 31
0.0
  0
LINE
  5
B9
  8
0
  6
CONTINUOUS
 62
     7
 10
883.5371090749776
 20
1715.629537196562
 30
0.0
 11
883.2371090749774
 21
1715.629537196562
 31
0.0
  0
LINE
  5
BA
  8
0
  6
CONTINUOUS
 62
     7
 10
883.7371090749776
 20
1715.629537196562
 30
0.0
 11
883.5371090749776
 21
1715.629537196562
 31
0.0
  0
LINE
  5
BB
  8
0
  6
CONTINUOUS
 62
     7
 10
883.2371090749774
 20
1715.629537196562
 30
0.0
 11
883.2371090749759
 21
1706.19392117787
 31
0.0
  0
LINE
  5
BC
  8
0
  6
CONTINUOUS
 62
     7
 10
883.5371090749833
 20
1678.846388881063
 30
0.0
 11
883.7371090749832
 21
1678.846388881063
 31
0.0
  0
LINE
  5
BD
  8
0
  6
CONTINUOUS
 62
     7
 10
883.2371090749833
 20
1678.846388881063
 30
0.0
 11
883.5371090749833
 21
1678.846388881063
 31
0.0
  0
LINE
  5
BE
  8
0
  6
CONTINUOUS
 62
     7
 10
883.2371090749826
 20
1688.282004899743
 30
0.0
 11
883.2371090749833
 21
1678.846388881063
 31
0.0
  0
POLYLINE
  5
BF
  8
0
  6
CONTINUOUS
 62
     7
 10
0.0
 20
0.0
 30
0.0
 66
     1
 70
     8
  0
VERTEX
  5
200
  8
0
  6
CONTINUOUS
 62
     7
 10
881.7371090749787
 20
1725.737963038812
 30
0.0
 70
    32
  0
VERTEX
  5
201
  8
0
  6
CONTINUOUS
 62
     7
 10
881.7543779003579
 20
1725.737963038811
 30
0.0
 70
    32
  0
VERTEX
  5
202
  8
0
  6
CONTINUOUS
 62
     7
 10
881.7718029838289
 20
1725.737963038812
 30
0.0
 70
    32
  0
VERTEX
  5
203
  8
0
  6
CONTINUOUS
 62
     7
 10
881.7895405834823
 20
1725.737963038812
 30
0.0
 70
    32
  0
VERTEX
  5
204
  8
0
  6
CONTINUOUS
 62
     7
 10
881.80774695741
 20
1725.737963038812
 30
0.0
 70
    32
  0
VERTEX
  5
205
  8
0
  6
CONTINUOUS
 62
     7
 10
881.8265783637032
 20
1725.737963038812
 30
0.0
 70
    32
  0
VERTEX
  5
206
  8
0
  6
CONTINUOUS
 62
     7
 10
881.8461910604528
 20
1725.737963038812
 30
0.0
 70
    32
  0
VERTEX
  5
207
  8
0
  6
CONTINUOUS
 62
     7
 10
881.8667412837417
 20
1725.737963038812
 30
0.0
 70
    32
  0
VERTEX
  5
208
  8
0
  6
CONTINUOUS
 62
     7
 10
881.8883390713606
 20
1725.737963038812
 30
0.0
 70
    32
  0
VERTEX
  5
209
  8
0
  6
CONTINUOUS
 62
     7
 10
881.9109508666814
 20
1725.737963038812
 30
0.0
 70
    32
  0
VERTEX
  5
20A
  8
0
  6
CONTINUOUS
 62
     7
 10
881.9345152954626
 20
1725.737963038811
 30
0.0
 70
    32
  0
VERTEX
  5
20B
  8
0
  6
CONTINUOUS
 62
     7
 10
881.9589709834636
 20
1725.737963038812
 30
0.0
 70
    32
  0
VERTEX
  5
20C
  8
0
  6
CONTINUOUS
 62
     7
 10
881.9842565564419
 20
1725.737963038812
 30
0.0
 70
    32
  0
VERTEX
  5
20D
  8
0
  6
CONTINUOUS
 62
     7
 10
882.0103106401566
 20
1725.737963038812
 30
0.0
 70
    32
  0
VERTEX
  5
20E
  8
0
  6
CONTINUOUS
 62
     7
 10
882.0370718603668
 20
1725.737963038812
 30
0.0
 70
    32
  0
VERTEX
  5
20F
  8
0
  6
CONTINUOUS
 62
     7
 10
882.064478842831
 20
1725.737963038812
 30
0.0
 70
    32
  0
VERTEX
  5
210
  8
0
  6
CONTINUOUS
 62
     7
 10
882.0924702133073
 20
1725.737963038811
 30
0.0
 70
    32
  0
VERTEX
  5
211
  8
0
  6
CONTINUOUS
 62
     7
 10
882.1209845975552
 20
1725.737963038811
 30
0.0
 70
    32
  0
VERTEX
  5
212
  8
0
  6
CONTINUOUS
 62
     7
 10
882.1499692484089
 20
1725.737963038812
 30
0.0
 70
    32
  0
VERTEX
  5
213
  8
0
  6
CONTINUOUS
 62
     7
 10
882.1794135572892
 20
1725.737963038812
 30
0.0
 70
    32
  0
VERTEX
  5
214
  8
0
  6
CONTINUOUS
 62
     7
 10
882.209319761698
 20
1725.737963038812
 30
0.0
 70
    32
  0
VERTEX
  5
215
  8
0
  6
CONTINUOUS
 62
     7
 10
882.2396901022445
 20
1725.737963038811
 30
0.0
 70
    32
  0
VERTEX
  5
216
  8
0
  6
CONTINUOUS
 62
     7
 10
882.2705268195374
 20
1725.737963038812
 30
0.0
 70
    32
  0
VERTEX
  5
217
  8
0
  6
CONTINUOUS
 62
     7
 10
882.301832154185
 20
1725.737963038812
 30
0.0
 70
    32
  0
VERTEX
  5
218
  8
0
  6
CONTINUOUS
 62
     7
 10
882.3336083467965
 20
1725.737963038812
 30
0.0
 70
    32
  0
VERTEX
  5
219
  8
0
  6
CONTINUOUS
 62
     7
 10
882.3658576379803
 20
1725.737963038812
 30
0.0
 70
    32
  0
VERTEX
  5
21A
  8
0
  6
CONTINUOUS
 62
     7
 10
882.3985822683455
 20
1725.737963038812
 30
0.0
 70
    32
  0
VERTEX
  5
21B
  8
0
  6
CONTINUOUS
 62
     7
 10
882.4317844785003
 20
1725.737963038811
 30
0.0
 70
    32
  0
VERTEX
  5
21C
  8
0
  6
CONTINUOUS
 62
     7
 10
882.465464917309
 20
1725.737963038812
 30
0.0
 70
    32
  0
VERTEX
  5
21D
  8
0
  6
CONTINUOUS
 62
     7
 10
882.4996123106324
 20
1725.737963038812
 30
0.0
 70
    32
  0
VERTEX
  5
21E
  8
0
  6
CONTINUOUS
 62
     7
 10
882.5342099775426
 20
1725.737963038812
 30
0.0
 70
    32
  0
VERTEX
  5
21F
  8
0
  6
CONTINUOUS
 62
     7
 10
882.5692412102322
 20
1725.737963038812
 30
0.0
 70
    32
  0
VERTEX
  5
220
  8
0
  6
CONTINUOUS
 62
     7
 10
882.6046893008938
 20
1725.737963038811
 30
0.0
 70
    32
  0
VERTEX
  5
221
  8
0
  6
CONTINUOUS
 62
     7
 10
882.6405375417191
 20
1725.737963038811
 30
0.0
 70
    32
  0
VERTEX
  5
222
  8
0
  6
CONTINUOUS
 62
     7
 10
882.6767692249012
 20
1725.737963038812
 30
0.0
 70
    32
  0
VERTEX
  5
223
  8
0
  6
CONTINUOUS
 62
     7
 10
882.713367642632
 20
1725.737963038812
 30
0.0
 70
    32
  0
VERTEX
  5
224
  8
0
  6
CONTINUOUS
 62
     7
 10
882.7503160871038
 20
1725.737963038812
 30
0.0
 70
    32
  0
VERTEX
  5
225
  8
0
  6
CONTINUOUS
 62
     7
 10
882.787597850509
 20
1725.737963038812
 30
0.0
 70
    32
  0
VERTEX
  5
226
  8
0
  6
CONTINUOUS
 62
     7
 10
882.8251962270458
 20
1725.737963038812
 30
0.0
 70
    32
  0
VERTEX
  5
227
  8
0
  6
CONTINUOUS
 62
     7
 10
882.8630945361874
 20
1725.737963038812
 30
0.0
 70
    32
  0
VERTEX
  5
228
  8
0
  6
CONTINUOUS
 62
     7
 10
882.9012761146948
 20
1725.737963038812
 30
0.0
 70
    32
  0
VERTEX
  5
229
  8
0
  6
CONTINUOUS
 62
     7
 10
882.9397242996637
 20
1725.737963038812
 30
0.0
 70
    32
  0
VERTEX
  5
22A
  8
0
  6
CONTINUOUS
 62
     7
 10
882.9784224281905
 20
1725.737963038812
 30
0.0
 70
    32
  0
VERTEX
  5
22B
  8
0
  6
CONTINUOUS
 62
     7
 10
883.0173538373713
 20
1725.737963038813
 30
0.0
 70
    32
  0
VERTEX
  5
22C
  8
0
  6
CONTINUOUS
 62
     7
 10
883.0565018643017
 20
1725.737963038813
 30
0.0
 70
    32
  0
VERTEX
  5
22D
  8
0
  6
CONTINUOUS
 62
     7
 10
883.095849846079
 20
1725.737963038813
 30
0.0
 70
    32
  0
VERTEX
  5
22E
  8
0
  6
CONTINUOUS
 62
     7
 10
883.1353811197985
 20
1725.737963038814
 30
0.0
 70
    32
  0
VERTEX
  5
22F
  8
0
  6
CONTINUOUS
 62
     7
 10
883.1750790225565
 20
1725.737963038814
 30
0.0
 70
    32
  0
VERTEX
  5
230
  8
0
  6
CONTINUOUS
 62
     7
 10
883.2149268914492
 20
1725.737963038814
 30
0.0
 70
    32
  0
VERTEX
  5
231
  8
0
  6
CONTINUOUS
 62
     7
 10
883.2549080635727
 20
1725.737963038815
 30
0.0
 70
    32
  0
VERTEX
  5
232
  8
0
  6
CONTINUOUS
 62
     7
 10
883.2950058760232
 20
1725.737963038815
 30
0.0
 70
    32
  0
VERTEX
  5
233
  8
0
  6
CONTINUOUS
 62
     7
 10
883.3352036658968
 20
1725.737963038815
 30
0.0
 70
    32
  0
VERTEX
  5
234
  8
0
  6
CONTINUOUS
 62
     7
 10
883.3754847702895
 20
1725.737963038815
 30
0.0
 70
    32
  0
VERTEX
  5
235
  8
0
  6
CONTINUOUS
 62
     7
 10
883.4158325262979
 20
1725.737963038816
 30
0.0
 70
    32
  0
VERTEX
  5
236
  8
0
  6
CONTINUOUS
 62
     7
 10
883.4562302710178
 20
1725.737963038816
 30
0.0
 70
    32
  0
VERTEX
  5
237
  8
0
  6
CONTINUOUS
 62
     7
 10
883.4966613415454
 20
1725.737963038817
 30
0.0
 70
    32
  0
VERTEX
  5
238
  8
0
  6
CONTINUOUS
 62
     7
 10
883.5371090749768
 20
1725.737963038817
 30
0.0
 70
    32
  0
SEQEND
  5
674
  8
0
  6
CONTINUOUS
 62
     7
  0
LINE
  5
C0
  8
0
  6
CONTINUOUS
 62
     7
 10
883.537109074977
 20
1724.737963038818
 30
0.0
 11
883.5371090749768
 21
1725.737963038817
 31
0.0
  0
POLYLINE
  5
C1
  8
0
  6
CONTINUOUS
 62
     7
 10
0.0
 20
0.0
 30
0.0
 66
     1
 70
     8
  0
VERTEX
  5
239
  8
0
  6
CONTINUOUS
 62
     7
 10
883.5371090750002
 20
1668.737963038814
 30
0.0
 70
    32
  0
VERTEX
  5
23A
  8
0
  6
CONTINUOUS
 62
     7
 10
883.4966605963032
 20
1668.737963038814
 30
0.0
 70
    32
  0
VERTEX
  5
23B
  8
0
  6
CONTINUOUS
 62
     7
 10
883.4562287840007
 20
1668.737963038814
 30
0.0
 70
    32
  0
VERTEX
  5
23C
  8
0
  6
CONTINUOUS
 62
     7
 10
883.4158303044877
 20
1668.737963038814
 30
0.0
 70
    32
  0
VERTEX
  5
23D
  8
0
  6
CONTINUOUS
 62
     7
 10
883.3754818241595
 20
1668.737963038814
 30
0.0
 70
    32
  0
VERTEX
  5
23E
  8
0
  6
CONTINUOUS
 62
     7
 10
883.3352000094102
 20
1668.737963038814
 30
0.0
 70
    32
  0
VERTEX
  5
23F
  8
0
  6
CONTINUOUS
 62
     7
 10
883.2950015266352
 20
1668.737963038814
 30
0.0
 70
    32
  0
VERTEX
  5
240
  8
0
  6
CONTINUOUS
 62
     7
 10
883.254903042229
 20
1668.737963038814
 30
0.0
 70
    32
  0
VERTEX
  5
241
  8
0
  6
CONTINUOUS
 62
     7
 10
883.2149212225867
 20
1668.737963038814
 30
0.0
 70
    32
  0
VERTEX
  5
242
  8
0
  6
CONTINUOUS
 62
     7
 10
883.1750727341032
 20
1668.737963038815
 30
0.0
 70
    32
  0
VERTEX
  5
243
  8
0
  6
CONTINUOUS
 62
     7
 10
883.1353742431725
 20
1668.737963038815
 30
0.0
 70
    32
  0
VERTEX
  5
244
  8
0
  6
CONTINUOUS
 62
     7
 10
883.0958424161898
 20
1668.737963038814
 30
0.0
 70
    32
  0
VERTEX
  5
245
  8
0
  6
CONTINUOUS
 62
     7
 10
883.0564939195506
 20
1668.737963038815
 30
0.0
 70
    32
  0
VERTEX
  5
246
  8
0
  6
CONTINUOUS
 62
     7
 10
883.0173454196489
 20
1668.737963038814
 30
0.0
 70
    32
  0
VERTEX
  5
247
  8
0
  6
CONTINUOUS
 62
     7
 10
882.9784135828799
 20
1668.737963038814
 30
0.0
 70
    32
  0
VERTEX
  5
248
  8
0
  6
CONTINUOUS
 62
     7
 10
882.9397150756381
 20
1668.737963038814
 30
0.0
 70
    32
  0
VERTEX
  5
249
  8
0
  6
CONTINUOUS
 62
     7
 10
882.9012665643188
 20
1668.737963038814
 30
0.0
 70
    32
  0
VERTEX
  5
24A
  8
0
  6
CONTINUOUS
 62
     7
 10
882.8630847153164
 20
1668.737963038814
 30
0.0
 70
    32
  0
VERTEX
  5
24B
  8
0
  6
CONTINUOUS
 62
     7
 10
882.8251861950258
 20
1668.737963038814
 30
0.0
 70
    32
  0
VERTEX
  5
24C
  8
0
  6
CONTINUOUS
 62
     7
 10
882.7875876700845
 20
1668.737963038814
 30
0.0
 70
    32
  0
VERTEX
  5
24D
  8
0
  6
CONTINUOUS
 62
     7
 10
882.7503058195903
 20
1668.737963038814
 30
0.0
 70
    32
  0
VERTEX
  5
24E
  8
0
  6
CONTINUOUS
 62
     7
 10
882.7133573408479
 20
1668.737963038814
 30
0.0
 70
    32
  0
VERTEX
  5
24F
  8
0
  6
CONTINUOUS
 62
     7
 10
882.6767589326055
 20
1668.737963038814
 30
0.0
 70
    32
  0
VERTEX
  5
250
  8
0
  6
CONTINUOUS
 62
     7
 10
882.6405272936106
 20
1668.737963038814
 30
0.0
 70
    32
  0
VERTEX
  5
251
  8
0
  6
CONTINUOUS
 62
     7
 10
882.6046791226115
 20
1668.737963038814
 30
0.0
 70
    32
  0
VERTEX
  5
252
  8
0
  6
CONTINUOUS
 62
     7
 10
882.569231118356
 20
1668.737963038815
 30
0.0
 70
    32
  0
VERTEX
  5
253
  8
0
  6
CONTINUOUS
 62
     7
 10
882.5341999795918
 20
1668.737963038815
 30
0.0
 70
    32
  0
VERTEX
  5
254
  8
0
  6
CONTINUOUS
 62
     7
 10
882.4996024050669
 20
1668.737963038814
 30
0.0
 70
    32
  0
VERTEX
  5
255
  8
0
  6
CONTINUOUS
 62
     7
 10
882.465455093529
 20
1668.737963038814
 30
0.0
 70
    32
  0
VERTEX
  5
256
  8
0
  6
CONTINUOUS
 62
     7
 10
882.4317747111309
 20
1668.737963038814
 30
0.0
 70
    32
  0
VERTEX
  5
257
  8
0
  6
CONTINUOUS
 62
     7
 10
882.3985723645874
 20
1668.737963038815
 30
0.0
 70
    32
  0
VERTEX
  5
258
  8
0
  6
CONTINUOUS
 62
     7
 10
882.3658473624297
 20
1668.737963038814
 30
0.0
 70
    32
  0
VERTEX
  5
259
  8
0
  6
CONTINUOUS
 62
     7
 10
882.3335975066519
 20
1668.737963038814
 30
0.0
 70
    32
  0
VERTEX
  5
25A
  8
0
  6
CONTINUOUS
 62
     7
 10
882.3018205992483
 20
1668.737963038815
 30
0.0
 70
    32
  0
VERTEX
  5
25B
  8
0
  6
CONTINUOUS
 62
     7
 10
882.2705144422122
 20
1668.737963038814
 30
0.0
 70
    32
  0
VERTEX
  5
25C
  8
0
  6
CONTINUOUS
 62
     7
 10
882.2396768375376
 20
1668.737963038814
 30
0.0
 70
    32
  0
VERTEX
  5
25D
  8
0
  6
CONTINUOUS
 62
     7
 10
882.209305587219
 20
1668.737963038814
 30
0.0
 70
    32
  0
VERTEX
  5
25E
  8
0
  6
CONTINUOUS
 62
     7
 10
882.1793984932497
 20
1668.737963038814
 30
0.0
 70
    32
  0
VERTEX
  5
25F
  8
0
  6
CONTINUOUS
 62
     7
 10
882.1499533576244
 20
1668.737963038815
 30
0.0
 70
    32
  0
VERTEX
  5
260
  8
0
  6
CONTINUOUS
 62
     7
 10
882.1209679855261
 20
1668.737963038814
 30
0.0
 70
    32
  0
VERTEX
  5
261
  8
0
  6
CONTINUOUS
 62
     7
 10
882.0924530552069
 20
1668.737963038815
 30
0.0
 70
    32
  0
VERTEX
  5
262
  8
0
  6
CONTINUOUS
 62
     7
 10
882.0644614000897
 20
1668.737963038814
 30
0.0
 70
    32
  0
VERTEX
  5
263
  8
0
  6
CONTINUOUS
 62
     7
 10
882.0370544690661
 20
1668.737963038814
 30
0.0
 70
    32
  0
VERTEX
  5
264
  8
0
  6
CONTINUOUS
 62
     7
 10
882.0102937110274
 20
1668.737963038815
 30
0.0
 70
    32
  0
VERTEX
  5
265
  8
0
  6
CONTINUOUS
 62
     7
 10
881.9842405748645
 20
1668.737963038814
 30
0.0
 70
    32
  0
VERTEX
  5
266
  8
0
  6
CONTINUOUS
 62
     7
 10
881.9589565094698
 20
1668.737963038815
 30
0.0
 70
    32
  0
VERTEX
  5
267
  8
0
  6
CONTINUOUS
 62
     7
 10
881.9345029637332
 20
1668.737963038814
 30
0.0
 70
    32
  0
VERTEX
  5
268
  8
0
  6
CONTINUOUS
 62
     7
 10
881.910941386547
 20
1668.737963038814
 30
0.0
 70
    32
  0
VERTEX
  5
269
  8
0
  6
CONTINUOUS
 62
     7
 10
881.8883332268023
 20
1668.737963038815
 30
0.0
 70
    32
  0
VERTEX
  5
26A
  8
0
  6
CONTINUOUS
 62
     7
 10
881.86673993339
 20
1668.737963038814
 30
0.0
 70
    32
  0
VERTEX
  5
26B
  8
0
  6
CONTINUOUS
 62
     7
 10
881.8461938683413
 20
1668.737963038815
 30
0.0
 70
    32
  0
VERTEX
  5
26C
  8
0
  6
CONTINUOUS
 62
     7
 10
881.8265835052683
 20
1668.737963038814
 30
0.0
 70
    32
  0
VERTEX
  5
26D
  8
0
  6
CONTINUOUS
 62
     7
 10
881.8077529044751
 20
1668.737963038814
 30
0.0
 70
    32
  0
VERTEX
  5
26E
  8
0
  6
CONTINUOUS
 62
     7
 10
881.7895461135055
 20
1668.737963038814
 30
0.0
 70
    32
  0
VERTEX
  5
26F
  8
0
  6
CONTINUOUS
 62
     7
 10
881.7718071799032
 20
1668.737963038814
 30
0.0
 70
    32
  0
VERTEX
  5
270
  8
0
  6
CONTINUOUS
 62
     7
 10
881.7543801512129
 20
1668.737963038814
 30
0.0
 70
    32
  0
VERTEX
  5
271
  8
0
  6
CONTINUOUS
 62
     7
 10
881.7371090749785
 20
1668.737963038814
 30
0.0
 70
    32
  0
SEQEND
  5
675
  8
0
  6
CONTINUOUS
 62
     7
  0
LINE
  5
C2
  8
0
  6
CONTINUOUS
 62
     7
 10
883.5371090749862
 20
1669.737963038813
 30
0.0
 11
883.5371090750002
 21
1668.737963038814
 31
0.0
  0
LINE
  5
C3
  8
0
  6
CONTINUOUS
 62
     7
 10
883.7371090749771
 20
1724.737963038818
 30
0.0
 11
883.537109074977
 21
1724.737963038818
 31
0.0
  0
LINE
  5
C4
  8
0
  6
CONTINUOUS
 62
     7
 10
883.537109074977
 20
1724.737963038818
 30
0.0
 11
883.5371090749776
 21
1715.629537196562
 31
0.0
  0
POLYLINE
  5
C5
  8
0
  6
CONTINUOUS
 62
     7
 66
     1
 10
0.0
 20
0.0
 30
0.0
  0
VERTEX
  5
272
  8
0
  6
CONTINUOUS
 62
     7
 10
881.7371090749785
 20
1707.480461680491
 30
0.0
  0
VERTEX
  5
273
  8
0
  6
CONTINUOUS
 62
     7
 10
881.7459734172388
 20
1707.471665197683
 30
0.0
  0
VERTEX
  5
274
  8
0
  6
CONTINUOUS
 62
     7
 10
881.7549567361315
 20
1707.463019398293
 30
0.0
  0
VERTEX
  5
275
  8
0
  6
CONTINUOUS
 62
     7
 10
881.7641497617327
 20
1707.454639643707
 30
0.0
  0
VERTEX
  5
276
  8
0
  6
CONTINUOUS
 62
     7
 10
881.7735564145784
 20
1707.446532740857
 30
0.0
  0
VERTEX
  5
277
  8
0
  6
CONTINUOUS
 62
     7
 10
881.7831639934053
 20
1707.438684711281
 30
0.0
  0
VERTEX
  5
278
  8
0
  6
CONTINUOUS
 62
     7
 10
881.7929597969508
 20
1707.431081576523
 30
0.0
  0
VERTEX
  5
279
  8
0
  6
CONTINUOUS
 62
     7
 10
881.8029311239513
 20
1707.42370935812
 30
0.0
  0
VERTEX
  5
27A
  8
0
  6
CONTINUOUS
 62
     7
 10
881.813065273144
 20
1707.416554077613
 30
0.0
  0
VERTEX
  5
27B
  8
0
  6
CONTINUOUS
 62
     7
 10
881.8233495432661
 20
1707.409601756543
 30
0.0
  0
VERTEX
  5
27C
  8
0
  6
CONTINUOUS
 62
     7
 10
881.8337712330535
 20
1707.402838416449
 30
0.0
  0
VERTEX
  5
27D
  8
0
  6
CONTINUOUS
 62
     7
 10
881.8443176412437
 20
1707.396250078871
 30
0.0
  0
VERTEX
  5
27E
  8
0
  6
CONTINUOUS
 62
     7
 10
881.8549760665734
 20
1707.389822765351
 30
0.0
  0
VERTEX
  5
27F
  8
0
  6
CONTINUOUS
 62
     7
 10
881.8657338077794
 20
1707.383542497426
 30
0.0
  0
VERTEX
  5
280
  8
0
  6
CONTINUOUS
 62
     7
 10
881.8765781635989
 20
1707.377395296638
 30
0.0
  0
VERTEX
  5
281
  8
0
  6
CONTINUOUS
 62
     7
 10
881.8874964327687
 20
1707.371367184528
 30
0.0
  0
VERTEX
  5
282
  8
0
  6
CONTINUOUS
 62
     7
 10
881.8984759140251
 20
1707.365444182634
 30
0.0
  0
VERTEX
  5
283
  8
0
  6
CONTINUOUS
 62
     7
 10
881.9095056749187
 20
1707.359614455542
 30
0.0
  0
VERTEX
  5
284
  8
0
  6
CONTINUOUS
 62
     7
 10
881.920584452331
 20
1707.35387788293
 30
0.0
  0
VERTEX
  5
285
  8
0
  6
CONTINUOUS
 62
     7
 10
881.9317142706055
 20
1707.348238327469
 30
0.0
  0
VERTEX
  5
286
  8
0
  6
CONTINUOUS
 62
     7
 10
881.9428971568057
 20
1707.342699655132
 30
0.0
  0
VERTEX
  5
287
  8
0
  6
CONTINUOUS
 62
     7
 10
881.9541351379944
 20
1707.337265731886
 30
0.0
  0
VERTEX
  5
288
  8
0
  6
CONTINUOUS
 62
     7
 10
881.9654302412358
 20
1707.331940423702
 30
0.0
  0
VERTEX
  5
289
  8
0
  6
CONTINUOUS
 62
     7
 10
881.9767844935923
 20
1707.326727596548
 30
0.0
  0
VERTEX
  5
28A
  8
0
  6
CONTINUOUS
 62
     7
 10
881.9881999221276
 20
1707.321631116394
 30
0.0
  0
VERTEX
  5
28B
  8
0
  6
CONTINUOUS
 62
     7
 10
881.9996785539054
 20
1707.31665484921
 30
0.0
  0
VERTEX
  5
28C
  8
0
  6
CONTINUOUS
 62
     7
 10
882.0112224159885
 20
1707.311802660964
 30
0.0
  0
VERTEX
  5
28D
  8
0
  6
CONTINUOUS
 62
     7
 10
882.0228335354404
 20
1707.307078417627
 30
0.0
  0
VERTEX
  5
28E
  8
0
  6
CONTINUOUS
 62
     7
 10
882.0345139393248
 20
1707.302485985167
 30
0.0
  0
VERTEX
  5
28F
  8
0
  6
CONTINUOUS
 62
     7
 10
882.0462656547045
 20
1707.298029229554
 30
0.0
  0
VERTEX
  5
290
  8
0
  6
CONTINUOUS
 62
     7
 10
882.0580907086434
 20
1707.293712016758
 30
0.0
  0
VERTEX
  5
291
  8
0
  6
CONTINUOUS
 62
     7
 10
882.0699911017618
 20
1707.289538218331
 30
0.0
  0
VERTEX
  5
292
  8
0
  6
CONTINUOUS
 62
     7
 10
882.0819674492398
 20
1707.285511998339
 30
0.0
  0
VERTEX
  5
293
  8
0
  6
CONTINUOUS
 62
     7
 10
882.0940183270925
 20
1707.281637951383
 30
0.0
  0
VERTEX
  5
294
  8
0
  6
CONTINUOUS
 62
     7
 10
882.1061421479965
 20
1707.277920706553
 30
0.0
  0
VERTEX
  5
295
  8
0
  6
CONTINUOUS
 62
     7
 10
882.1183373246281
 20
1707.274364892937
 30
0.0
  0
VERTEX
  5
296
  8
0
  6
CONTINUOUS
 62
     7
 10
882.130602269663
 20
1707.270975139623
 30
0.0
  0
VERTEX
  5
297
  8
0
  6
CONTINUOUS
 62
     7
 10
882.1429353957776
 20
1707.267756075701
 30
0.0
  0
VERTEX
  5
298
  8
0
  6
CONTINUOUS
 62
     7
 10
882.1553351156483
 20
1707.26471233026
 30
0.0
  0
VERTEX
  5
299
  8
0
  6
CONTINUOUS
 62
     7
 10
882.1677998419508
 20
1707.261848532387
 30
0.0
  0
VERTEX
  5
29A
  8
0
  6
CONTINUOUS
 62
     7
 10
882.1803279873612
 20
1707.259169311172
 30
0.0
  0
VERTEX
  5
29B
  8
0
  6
CONTINUOUS
 62
     7
 10
882.1929179645557
 20
1707.256679295703
 30
0.0
  0
VERTEX
  5
29C
  8
0
  6
CONTINUOUS
 62
     7
 10
882.2055681862107
 20
1707.254383115069
 30
0.0
  0
VERTEX
  5
29D
  8
0
  6
CONTINUOUS
 62
     7
 10
882.2182770650021
 20
1707.252285398359
 30
0.0
  0
VERTEX
  5
29E
  8
0
  6
CONTINUOUS
 62
     7
 10
882.2310427466202
 20
1707.250388845461
 30
0.0
  0
VERTEX
  5
29F
  8
0
  6
CONTINUOUS
 62
     7
 10
882.2438615613602
 20
1707.248683038481
 30
0.0
  0
VERTEX
  5
2A0
  8
0
  6
CONTINUOUS
 62
     7
 10
882.2567290837416
 20
1707.247152098395
 30
0.0
  0
VERTEX
  5
2A1
  8
0
  6
CONTINUOUS
 62
     7
 10
882.2696408857967
 20
1707.245780128211
 30
0.0
  0
VERTEX
  5
2A2
  8
0
  6
CONTINUOUS
 62
     7
 10
882.2825925395579
 20
1707.244551230941
 30
0.0
  0
VERTEX
  5
2A3
  8
0
  6
CONTINUOUS
 62
     7
 10
882.2955796170583
 20
1707.243449509594
 30
0.0
  0
VERTEX
  5
2A4
  8
0
  6
CONTINUOUS
 62
     7
 10
882.30859769033
 20
1707.242459067179
 30
0.0
  0
VERTEX
  5
2A5
  8
0
  6
CONTINUOUS
 62
     7
 10
882.3216423314062
 20
1707.241564006706
 30
0.0
  0
VERTEX
  5
2A6
  8
0
  6
CONTINUOUS
 62
     7
 10
882.334709112319
 20
1707.240748431185
 30
0.0
  0
VERTEX
  5
2A7
  8
0
  6
CONTINUOUS
 62
     7
 10
882.3477936051015
 20
1707.239996443625
 30
0.0
  0
VERTEX
  5
2A8
  8
0
  6
CONTINUOUS
 62
     7
 10
882.3608913817861
 20
1707.239292147036
 30
0.0
  0
VERTEX
  5
2A9
  8
0
  6
CONTINUOUS
 62
     7
 10
882.3739980144053
 20
1707.238619644428
 30
0.0
  0
VERTEX
  5
2AA
  8
0
  6
CONTINUOUS
 62
     7
 10
882.387109074992
 20
1707.23796303881
 30
0.0
  0
SEQEND
  5
676
  8
0
  6
CONTINUOUS
 62
     7
  0
LINE
  5
C6
  8
0
  6
CONTINUOUS
 62
     7
 10
883.2371090749856
 20
1707.23796303881
 30
0.0
 11
882.387109074992
 21
1707.23796303881
 31
0.0
  0
LINE
  5
C7
  8
0
  6
CONTINUOUS
 62
     7
 10
883.7371090749863
 20
1669.737963038813
 30
0.0
 11
883.5371090749862
 21
1669.737963038813
 31
0.0
  0
LINE
  5
C8
  8
0
  6
CONTINUOUS
 62
     7
 10
883.5371090749833
 20
1678.846388881063
 30
0.0
 11
883.5371090749862
 21
1669.737963038813
 31
0.0
  0
POLYLINE
  5
C9
  8
0
  6
CONTINUOUS
 62
     7
 66
     1
 10
0.0
 20
0.0
 30
0.0
  0
VERTEX
  5
2AB
  8
0
  6
CONTINUOUS
 62
     7
 10
882.3871090749811
 20
1687.23796303881
 30
0.0
  0
VERTEX
  5
2AC
  8
0
  6
CONTINUOUS
 62
     7
 10
882.3718365228052
 20
1687.237145067046
 30
0.0
  0
VERTEX
  5
2AD
  8
0
  6
CONTINUOUS
 62
     7
 10
882.3565710903898
 20
1687.236303553604
 30
0.0
  0
VERTEX
  5
2AE
  8
0
  6
CONTINUOUS
 62
     7
 10
882.341319897495
 20
1687.235414956806
 30
0.0
  0
VERTEX
  5
2AF
  8
0
  6
CONTINUOUS
 62
     7
 10
882.3260900638808
 20
1687.234455734973
 30
0.0
  0
VERTEX
  5
2B0
  8
0
  6
CONTINUOUS
 62
     7
 10
882.3108887093083
 20
1687.233402346428
 30
0.0
  0
VERTEX
  5
2B1
  8
0
  6
CONTINUOUS
 62
     7
 10
882.2957229535373
 20
1687.232231249492
 30
0.0
  0
VERTEX
  5
2B2
  8
0
  6
CONTINUOUS
 62
     7
 10
882.2805999163279
 20
1687.230918902487
 30
0.0
  0
VERTEX
  5
2B3
  8
0
  6
CONTINUOUS
 62
     7
 10
882.2655267174407
 20
1687.229441763735
 30
0.0
  0
VERTEX
  5
2B4
  8
0
  6
CONTINUOUS
 62
     7
 10
882.2505104766362
 20
1687.227776291559
 30
0.0
  0
VERTEX
  5
2B5
  8
0
  6
CONTINUOUS
 62
     7
 10
882.2355583136746
 20
1687.22589894428
 30
0.0
  0
VERTEX
  5
2B6
  8
0
  6
CONTINUOUS
 62
     7
 10
882.2206773483159
 20
1687.223786180219
 30
0.0
  0
VERTEX
  5
2B7
  8
0
  6
CONTINUOUS
 62
     7
 10
882.2058747001355
 20
1687.221414458566
 30
0.0
  0
VERTEX
  5
2B8
  8
0
  6
CONTINUOUS
 62
     7
 10
882.1911561038056
 20
1687.218766711098
 30
0.0
  0
VERTEX
  5
2B9
  8
0
  6
CONTINUOUS
 62
     7
 10
882.1765225792481
 20
1687.215847904828
 30
0.0
  0
VERTEX
  5
2BA
  8
0
  6
CONTINUOUS
 62
     7
 10
882.1619741439748
 20
1687.212667691716
 30
0.0
  0
VERTEX
  5
2BB
  8
0
  6
CONTINUOUS
 62
     7
 10
882.1475108154959
 20
1687.209235723721
 30
0.0
  0
VERTEX
  5
2BC
  8
0
  6
CONTINUOUS
 62
     7
 10
882.133132611323
 20
1687.205561652806
 30
0.0
  0
VERTEX
  5
2BD
  8
0
  6
CONTINUOUS
 62
     7
 10
882.1188395489673
 20
1687.201655130931
 30
0.0
  0
VERTEX
  5
2BE
  8
0
  6
CONTINUOUS
 62
     7
 10
882.1046316459389
 20
1687.197525810055
 30
0.0
  0
VERTEX
  5
2BF
  8
0
  6
CONTINUOUS
 62
     7
 10
882.0905089197495
 20
1687.19318334214
 30
0.0
  0
VERTEX
  5
2C0
  8
0
  6
CONTINUOUS
 62
     7
 10
882.0764713879099
 20
1687.188637379147
 30
0.0
  0
VERTEX
  5
2C1
  8
0
  6
CONTINUOUS
 62
     7
 10
882.0625190679309
 20
1687.183897573035
 30
0.0
  0
VERTEX
  5
2C2
  8
0
  6
CONTINUOUS
 62
     7
 10
882.048651977324
 20
1687.178973575765
 30
0.0
  0
VERTEX
  5
2C3
  8
0
  6
CONTINUOUS
 62
     7
 10
882.0348701335996
 20
1687.173875039299
 30
0.0
  0
VERTEX
  5
2C4
  8
0
  6
CONTINUOUS
 62
     7
 10
882.0211739296155
 20
1687.16861059574
 30
0.0
  0
VERTEX
  5
2C5
  8
0
  6
CONTINUOUS
 62
     7
 10
882.0075671503718
 20
1687.163179660373
 30
0.0
  0
VERTEX
  5
2C6
  8
0
  6
CONTINUOUS
 62
     7
 10
881.9940553820112
 20
1687.157576754589
 30
0.0
  0
VERTEX
  5
2C7
  8
0
  6
CONTINUOUS
 62
     7
 10
881.9806442272695
 20
1687.151796354692
 30
0.0
  0
VERTEX
  5
2C8
  8
0
  6
CONTINUOUS
 62
     7
 10
881.9673392888815
 20
1687.145832936985
 30
0.0
  0
VERTEX
  5
2C9
  8
0
  6
CONTINUOUS
 62
     7
 10
881.9541461695829
 20
1687.139680977774
 30
0.0
  0
VERTEX
  5
2CA
  8
0
  6
CONTINUOUS
 62
     7
 10
881.9410704721091
 20
1687.133334953364
 30
0.0
  0
VERTEX
  5
2CB
  8
0
  6
CONTINUOUS
 62
     7
 10
881.9281177991953
 20
1687.126789340059
 30
0.0
  0
VERTEX
  5
2CC
  8
0
  6
CONTINUOUS
 62
     7
 10
881.9152937535766
 20
1687.120038614164
 30
0.0
  0
VERTEX
  5
2CD
  8
0
  6
CONTINUOUS
 62
     7
 10
881.9026039379888
 20
1687.113077251983
 30
0.0
  0
VERTEX
  5
2CE
  8
0
  6
CONTINUOUS
 62
     7
 10
881.8900539551668
 20
1687.105899729821
 30
0.0
  0
VERTEX
  5
2CF
  8
0
  6
CONTINUOUS
 62
     7
 10
881.8776494078462
 20
1687.098500523984
 30
0.0
  0
VERTEX
  5
2D0
  8
0
  6
CONTINUOUS
 62
     7
 10
881.8653942946621
 20
1687.090876267681
 30
0.0
  0
VERTEX
  5
2D1
  8
0
  6
CONTINUOUS
 62
     7
 10
881.8532809253535
 20
1687.083039311251
 30
0.0
  0
VERTEX
  5
2D2
  8
0
  6
CONTINUOUS
 62
     7
 10
881.841296435076
 20
1687.075008962882
 30
0.0
  0
VERTEX
  5
2D3
  8
0
  6
CONTINUOUS
 62
     7
 10
881.8294279359271
 20
1687.066804561768
 30
0.0
  0
VERTEX
  5
2D4
  8
0
  6
CONTINUOUS
 62
     7
 10
881.8176625400035
 20
1687.058445447102
 30
0.0
  0
VERTEX
  5
2D5
  8
0
  6
CONTINUOUS
 62
     7
 10
881.8059873594016
 20
1687.049950958079
 30
0.0
  0
VERTEX
  5
2D6
  8
0
  6
CONTINUOUS
 62
     7
 10
881.794389506219
 20
1687.041340433893
 30
0.0
  0
VERTEX
  5
2D7
  8
0
  6
CONTINUOUS
 62
     7
 10
881.7828560925519
 20
1687.032633213737
 30
0.0
  0
VERTEX
  5
2D8
  8
0
  6
CONTINUOUS
 62
     7
 10
881.7713742304975
 20
1687.023848636805
 30
0.0
  0
VERTEX
  5
2D9
  8
0
  6
CONTINUOUS
 62
     7
 10
881.7599310321527
 20
1687.015006042292
 30
0.0
  0
VERTEX
  5
2DA
  8
0
  6
CONTINUOUS
 62
     7
 10
881.748513609614
 20
1687.00612476939
 30
0.0
  0
VERTEX
  5
2DB
  8
0
  6
CONTINUOUS
 62
     7
 10
881.7371090749785
 20
1686.997224157295
 30
0.0
  0
SEQEND
  5
677
  8
0
  6
CONTINUOUS
 62
     7
  0
LINE
  5
CA
  8
0
  6
CONTINUOUS
 62
     7
 10
882.3871090749811
 20
1687.23796303881
 30
0.0
 11
883.2371090749855
 21
1687.237963038813
 31
0.0
  0
LINE
  5
CB
  8
0
  6
CONTINUOUS
 62
     7
 10
883.7371090749768
 20
1725.737963038817
 30
0.0
 11
883.5371090749768
 21
1725.737963038817
 31
0.0
  0
LINE
  5
CC
  8
0
  6
CONTINUOUS
 62
     7
 10
883.7371090750003
 20
1668.737963038814
 30
0.0
 11
883.5371090750002
 21
1668.737963038814
 31
0.0
  0
LINE
  5
CD
  8
0
  6
CONTINUOUS
 62
     7
 10
883.2371090749759
 20
1270.19392117787
 30
0.0
 11
883.7371090749853
 21
1270.19392117787
 31
0.0
  0
LINE
  5
CE
  8
0
  6
CONTINUOUS
 62
     7
 10
883.2371090749758
 20
1268.637963038577
 30
0.0
 11
883.7371090749757
 21
1268.637963038577
 31
0.0
  0
LINE
  5
CF
  8
0
  6
CONTINUOUS
 62
     7
 10
883.2371090749758
 20
1268.637963038577
 30
0.0
 11
883.2371090749759
 21
1270.19392117787
 31
0.0
  0
LINE
  5
D0
  8
0
  6
CONTINUOUS
 62
     7
 10
883.7371090749853
 20
1252.282004899741
 30
0.0
 11
883.2371090749828
 21
1252.282004899742
 31
0.0
  0
LINE
  5
D1
  8
0
  6
CONTINUOUS
 62
     7
 10
883.2371090749828
 20
1252.282004899742
 30
0.0
 11
883.2371090749915
 21
1253.837963039029
 31
0.0
  0
LINE
  5
D2
  8
0
  6
CONTINUOUS
 62
     7
 10
883.7371090749915
 20
1253.837963039029
 30
0.0
 11
883.2371090749915
 21
1253.837963039029
 31
0.0
  0
LINE
  5
D3
  8
0
  6
CONTINUOUS
 62
     7
 10
883.5371090749777
 20
1279.629537196562
 30
0.0
 11
883.2371090749775
 21
1279.629537196562
 31
0.0
  0
LINE
  5
D4
  8
0
  6
CONTINUOUS
 62
     7
 10
883.7371090749778
 20
1279.629537196562
 30
0.0
 11
883.5371090749777
 21
1279.629537196562
 31
0.0
  0
LINE
  5
D5
  8
0
  6
CONTINUOUS
 62
     7
 10
883.2371090749775
 20
1279.629537196562
 30
0.0
 11
883.2371090749759
 21
1270.19392117787
 31
0.0
  0
LINE
  5
D6
  8
0
  6
CONTINUOUS
 62
     7
 10
883.5371090749834
 20
1242.846388881063
 30
0.0
 11
883.7371090749833
 21
1242.846388881063
 31
0.0
  0
LINE
  5
D7
  8
0
  6
CONTINUOUS
 62
     7
 10
883.2371090749834
 20
1242.846388881063
 30
0.0
 11
883.5371090749834
 21
1242.846388881063
 31
0.0
  0
LINE
  5
D8
  8
0
  6
CONTINUOUS
 62
     7
 10
883.2371090749828
 20
1252.282004899742
 30
0.0
 11
883.2371090749834
 21
1242.846388881063
 31
0.0
  0
POLYLINE
  5
D9
  8
0
  6
CONTINUOUS
 62
     7
 10
0.0
 20
0.0
 30
0.0
 66
     1
 70
     8
  0
VERTEX
  5
2DC
  8
0
  6
CONTINUOUS
 62
     7
 10
881.7371090749787
 20
1289.737963038812
 30
0.0
 70
    32
  0
VERTEX
  5
2DD
  8
0
  6
CONTINUOUS
 62
     7
 10
881.7543779003579
 20
1289.737963038812
 30
0.0
 70
    32
  0
VERTEX
  5
2DE
  8
0
  6
CONTINUOUS
 62
     7
 10
881.7718029838287
 20
1289.737963038811
 30
0.0
 70
    32
  0
VERTEX
  5
2DF
  8
0
  6
CONTINUOUS
 62
     7
 10
881.7895405834824
 20
1289.737963038812
 30
0.0
 70
    32
  0
VERTEX
  5
2E0
  8
0
  6
CONTINUOUS
 62
     7
 10
881.8077469574101
 20
1289.737963038812
 30
0.0
 70
    32
  0
VERTEX
  5
2E1
  8
0
  6
CONTINUOUS
 62
     7
 10
881.8265783637031
 20
1289.737963038812
 30
0.0
 70
    32
  0
VERTEX
  5
2E2
  8
0
  6
CONTINUOUS
 62
     7
 10
881.8461910604528
 20
1289.737963038812
 30
0.0
 70
    32
  0
VERTEX
  5
2E3
  8
0
  6
CONTINUOUS
 62
     7
 10
881.8667412837416
 20
1289.737963038812
 30
0.0
 70
    32
  0
VERTEX
  5
2E4
  8
0
  6
CONTINUOUS
 62
     7
 10
881.8883390713606
 20
1289.737963038812
 30
0.0
 70
    32
  0
VERTEX
  5
2E5
  8
0
  6
CONTINUOUS
 62
     7
 10
881.9109508666816
 20
1289.737963038812
 30
0.0
 70
    32
  0
VERTEX
  5
2E6
  8
0
  6
CONTINUOUS
 62
     7
 10
881.9345152954628
 20
1289.737963038812
 30
0.0
 70
    32
  0
VERTEX
  5
2E7
  8
0
  6
CONTINUOUS
 62
     7
 10
881.9589709834635
 20
1289.737963038812
 30
0.0
 70
    32
  0
VERTEX
  5
2E8
  8
0
  6
CONTINUOUS
 62
     7
 10
881.9842565564418
 20
1289.737963038812
 30
0.0
 70
    32
  0
VERTEX
  5
2E9
  8
0
  6
CONTINUOUS
 62
     7
 10
882.0103106401568
 20
1289.737963038812
 30
0.0
 70
    32
  0
VERTEX
  5
2EA
  8
0
  6
CONTINUOUS
 62
     7
 10
882.0370718603668
 20
1289.737963038812
 30
0.0
 70
    32
  0
VERTEX
  5
2EB
  8
0
  6
CONTINUOUS
 62
     7
 10
882.0644788428307
 20
1289.737963038811
 30
0.0
 70
    32
  0
VERTEX
  5
2EC
  8
0
  6
CONTINUOUS
 62
     7
 10
882.0924702133075
 20
1289.737963038812
 30
0.0
 70
    32
  0
VERTEX
  5
2ED
  8
0
  6
CONTINUOUS
 62
     7
 10
882.1209845975554
 20
1289.737963038812
 30
0.0
 70
    32
  0
VERTEX
  5
2EE
  8
0
  6
CONTINUOUS
 62
     7
 10
882.1499692484088
 20
1289.737963038812
 30
0.0
 70
    32
  0
VERTEX
  5
2EF
  8
0
  6
CONTINUOUS
 62
     7
 10
882.1794135572891
 20
1289.737963038812
 30
0.0
 70
    32
  0
VERTEX
  5
2F0
  8
0
  6
CONTINUOUS
 62
     7
 10
882.2093197616982
 20
1289.737963038812
 30
0.0
 70
    32
  0
VERTEX
  5
2F1
  8
0
  6
CONTINUOUS
 62
     7
 10
882.2396901022448
 20
1289.737963038812
 30
0.0
 70
    32
  0
VERTEX
  5
2F2
  8
0
  6
CONTINUOUS
 62
     7
 10
882.2705268195373
 20
1289.737963038812
 30
0.0
 70
    32
  0
VERTEX
  5
2F3
  8
0
  6
CONTINUOUS
 62
     7
 10
882.301832154185
 20
1289.737963038812
 30
0.0
 70
    32
  0
VERTEX
  5
2F4
  8
0
  6
CONTINUOUS
 62
     7
 10
882.3336083467966
 20
1289.737963038812
 30
0.0
 70
    32
  0
VERTEX
  5
2F5
  8
0
  6
CONTINUOUS
 62
     7
 10
882.3658576379805
 20
1289.737963038812
 30
0.0
 70
    32
  0
VERTEX
  5
2F6
  8
0
  6
CONTINUOUS
 62
     7
 10
882.3985822683454
 20
1289.737963038812
 30
0.0
 70
    32
  0
VERTEX
  5
2F7
  8
0
  6
CONTINUOUS
 62
     7
 10
882.4317844785003
 20
1289.737963038812
 30
0.0
 70
    32
  0
VERTEX
  5
2F8
  8
0
  6
CONTINUOUS
 62
     7
 10
882.465464917309
 20
1289.737963038811
 30
0.0
 70
    32
  0
VERTEX
  5
2F9
  8
0
  6
CONTINUOUS
 62
     7
 10
882.4996123106323
 20
1289.737963038812
 30
0.0
 70
    32
  0
VERTEX
  5
2FA
  8
0
  6
CONTINUOUS
 62
     7
 10
882.5342099775424
 20
1289.737963038812
 30
0.0
 70
    32
  0
VERTEX
  5
2FB
  8
0
  6
CONTINUOUS
 62
     7
 10
882.5692412102322
 20
1289.737963038812
 30
0.0
 70
    32
  0
VERTEX
  5
2FC
  8
0
  6
CONTINUOUS
 62
     7
 10
882.6046893008937
 20
1289.737963038812
 30
0.0
 70
    32
  0
VERTEX
  5
2FD
  8
0
  6
CONTINUOUS
 62
     7
 10
882.6405375417191
 20
1289.737963038812
 30
0.0
 70
    32
  0
VERTEX
  5
2FE
  8
0
  6
CONTINUOUS
 62
     7
 10
882.6767692249012
 20
1289.737963038812
 30
0.0
 70
    32
  0
VERTEX
  5
2FF
  8
0
  6
CONTINUOUS
 62
     7
 10
882.713367642632
 20
1289.737963038812
 30
0.0
 70
    32
  0
VERTEX
  5
300
  8
0
  6
CONTINUOUS
 62
     7
 10
882.7503160871036
 20
1289.737963038811
 30
0.0
 70
    32
  0
VERTEX
  5
301
  8
0
  6
CONTINUOUS
 62
     7
 10
882.7875978505089
 20
1289.737963038812
 30
0.0
 70
    32
  0
VERTEX
  5
302
  8
0
  6
CONTINUOUS
 62
     7
 10
882.8251962270458
 20
1289.737963038812
 30
0.0
 70
    32
  0
VERTEX
  5
303
  8
0
  6
CONTINUOUS
 62
     7
 10
882.8630945361874
 20
1289.737963038812
 30
0.0
 70
    32
  0
VERTEX
  5
304
  8
0
  6
CONTINUOUS
 62
     7
 10
882.9012761146947
 20
1289.737963038812
 30
0.0
 70
    32
  0
VERTEX
  5
305
  8
0
  6
CONTINUOUS
 62
     7
 10
882.9397242996635
 20
1289.737963038812
 30
0.0
 70
    32
  0
VERTEX
  5
306
  8
0
  6
CONTINUOUS
 62
     7
 10
882.9784224281902
 20
1289.737963038812
 30
0.0
 70
    32
  0
VERTEX
  5
307
  8
0
  6
CONTINUOUS
 62
     7
 10
883.0173538373709
 20
1289.737963038812
 30
0.0
 70
    32
  0
VERTEX
  5
308
  8
0
  6
CONTINUOUS
 62
     7
 10
883.0565018643018
 20
1289.737963038813
 30
0.0
 70
    32
  0
VERTEX
  5
309
  8
0
  6
CONTINUOUS
 62
     7
 10
883.0958498460791
 20
1289.737963038813
 30
0.0
 70
    32
  0
VERTEX
  5
30A
  8
0
  6
CONTINUOUS
 62
     7
 10
883.1353811197984
 20
1289.737963038814
 30
0.0
 70
    32
  0
VERTEX
  5
30B
  8
0
  6
CONTINUOUS
 62
     7
 10
883.1750790225564
 20
1289.737963038814
 30
0.0
 70
    32
  0
VERTEX
  5
30C
  8
0
  6
CONTINUOUS
 62
     7
 10
883.2149268914492
 20
1289.737963038814
 30
0.0
 70
    32
  0
VERTEX
  5
30D
  8
0
  6
CONTINUOUS
 62
     7
 10
883.2549080635727
 20
1289.737963038815
 30
0.0
 70
    32
  0
VERTEX
  5
30E
  8
0
  6
CONTINUOUS
 62
     7
 10
883.2950058760232
 20
1289.737963038815
 30
0.0
 70
    32
  0
VERTEX
  5
30F
  8
0
  6
CONTINUOUS
 62
     7
 10
883.3352036658969
 20
1289.737963038815
 30
0.0
 70
    32
  0
VERTEX
  5
310
  8
0
  6
CONTINUOUS
 62
     7
 10
883.3754847702896
 20
1289.737963038815
 30
0.0
 70
    32
  0
VERTEX
  5
311
  8
0
  6
CONTINUOUS
 62
     7
 10
883.415832526298
 20
1289.737963038816
 30
0.0
 70
    32
  0
VERTEX
  5
312
  8
0
  6
CONTINUOUS
 62
     7
 10
883.4562302710178
 20
1289.737963038816
 30
0.0
 70
    32
  0
VERTEX
  5
313
  8
0
  6
CONTINUOUS
 62
     7
 10
883.4966613415455
 20
1289.737963038817
 30
0.0
 70
    32
  0
VERTEX
  5
314
  8
0
  6
CONTINUOUS
 62
     7
 10
883.5371090749769
 20
1289.737963038817
 30
0.0
 70
    32
  0
SEQEND
  5
678
  8
0
  6
CONTINUOUS
 62
     7
  0
LINE
  5
DA
  8
0
  6
CONTINUOUS
 62
     7
 10
883.5371090749771
 20
1288.737963038818
 30
0.0
 11
883.5371090749769
 21
1289.737963038817
 31
0.0
  0
POLYLINE
  5
DB
  8
0
  6
CONTINUOUS
 62
     7
 10
0.0
 20
0.0
 30
0.0
 66
     1
 70
     8
  0
VERTEX
  5
315
  8
0
  6
CONTINUOUS
 62
     7
 10
883.5371090750003
 20
1232.737963038815
 30
0.0
 70
    32
  0
VERTEX
  5
316
  8
0
  6
CONTINUOUS
 62
     7
 10
883.4966605963031
 20
1232.737963038815
 30
0.0
 70
    32
  0
VERTEX
  5
317
  8
0
  6
CONTINUOUS
 62
     7
 10
883.4562287840006
 20
1232.737963038815
 30
0.0
 70
    32
  0
VERTEX
  5
318
  8
0
  6
CONTINUOUS
 62
     7
 10
883.4158303044878
 20
1232.737963038815
 30
0.0
 70
    32
  0
VERTEX
  5
319
  8
0
  6
CONTINUOUS
 62
     7
 10
883.3754818241596
 20
1232.737963038815
 30
0.0
 70
    32
  0
VERTEX
  5
31A
  8
0
  6
CONTINUOUS
 62
     7
 10
883.3352000094104
 20
1232.737963038815
 30
0.0
 70
    32
  0
VERTEX
  5
31B
  8
0
  6
CONTINUOUS
 62
     7
 10
883.2950015266355
 20
1232.737963038815
 30
0.0
 70
    32
  0
VERTEX
  5
31C
  8
0
  6
CONTINUOUS
 62
     7
 10
883.2549030422296
 20
1232.737963038815
 30
0.0
 70
    32
  0
VERTEX
  5
31D
  8
0
  6
CONTINUOUS
 62
     7
 10
883.2149212225867
 20
1232.737963038814
 30
0.0
 70
    32
  0
VERTEX
  5
31E
  8
0
  6
CONTINUOUS
 62
     7
 10
883.1750727341031
 20
1232.737963038814
 30
0.0
 70
    32
  0
VERTEX
  5
31F
  8
0
  6
CONTINUOUS
 62
     7
 10
883.1353742431726
 20
1232.737963038814
 30
0.0
 70
    32
  0
VERTEX
  5
320
  8
0
  6
CONTINUOUS
 62
     7
 10
883.0958424161902
 20
1232.737963038814
 30
0.0
 70
    32
  0
VERTEX
  5
321
  8
0
  6
CONTINUOUS
 62
     7
 10
883.0564939195506
 20
1232.737963038814
 30
0.0
 70
    32
  0
VERTEX
  5
322
  8
0
  6
CONTINUOUS
 62
     7
 10
883.0173454196492
 20
1232.737963038814
 30
0.0
 70
    32
  0
VERTEX
  5
323
  8
0
  6
CONTINUOUS
 62
     7
 10
882.97841358288
 20
1232.737963038814
 30
0.0
 70
    32
  0
VERTEX
  5
324
  8
0
  6
CONTINUOUS
 62
     7
 10
882.9397150756383
 20
1232.737963038814
 30
0.0
 70
    32
  0
VERTEX
  5
325
  8
0
  6
CONTINUOUS
 62
     7
 10
882.9012665643188
 20
1232.737963038814
 30
0.0
 70
    32
  0
VERTEX
  5
326
  8
0
  6
CONTINUOUS
 62
     7
 10
882.8630847153165
 20
1232.737963038814
 30
0.0
 70
    32
  0
VERTEX
  5
327
  8
0
  6
CONTINUOUS
 62
     7
 10
882.825186195026
 20
1232.737963038814
 30
0.0
 70
    32
  0
VERTEX
  5
328
  8
0
  6
CONTINUOUS
 62
     7
 10
882.7875876700847
 20
1232.737963038814
 30
0.0
 70
    32
  0
VERTEX
  5
329
  8
0
  6
CONTINUOUS
 62
     7
 10
882.7503058195904
 20
1232.737963038814
 30
0.0
 70
    32
  0
VERTEX
  5
32A
  8
0
  6
CONTINUOUS
 62
     7
 10
882.7133573408479
 20
1232.737963038814
 30
0.0
 70
    32
  0
VERTEX
  5
32B
  8
0
  6
CONTINUOUS
 62
     7
 10
882.6767589326054
 20
1232.737963038814
 30
0.0
 70
    32
  0
VERTEX
  5
32C
  8
0
  6
CONTINUOUS
 62
     7
 10
882.6405272936108
 20
1232.737963038815
 30
0.0
 70
    32
  0
VERTEX
  5
32D
  8
0
  6
CONTINUOUS
 62
     7
 10
882.6046791226116
 20
1232.737963038814
 30
0.0
 70
    32
  0
VERTEX
  5
32E
  8
0
  6
CONTINUOUS
 62
     7
 10
882.5692311183559
 20
1232.737963038814
 30
0.0
 70
    32
  0
VERTEX
  5
32F
  8
0
  6
CONTINUOUS
 62
     7
 10
882.5341999795917
 20
1232.737963038814
 30
0.0
 70
    32
  0
VERTEX
  5
330
  8
0
  6
CONTINUOUS
 62
     7
 10
882.4996024050668
 20
1232.737963038814
 30
0.0
 70
    32
  0
VERTEX
  5
331
  8
0
  6
CONTINUOUS
 62
     7
 10
882.465455093529
 20
1232.737963038814
 30
0.0
 70
    32
  0
VERTEX
  5
332
  8
0
  6
CONTINUOUS
 62
     7
 10
882.4317747111306
 20
1232.737963038814
 30
0.0
 70
    32
  0
VERTEX
  5
333
  8
0
  6
CONTINUOUS
 62
     7
 10
882.3985723645873
 20
1232.737963038814
 30
0.0
 70
    32
  0
VERTEX
  5
334
  8
0
  6
CONTINUOUS
 62
     7
 10
882.3658473624298
 20
1232.737963038814
 30
0.0
 70
    32
  0
VERTEX
  5
335
  8
0
  6
CONTINUOUS
 62
     7
 10
882.3335975066523
 20
1232.737963038814
 30
0.0
 70
    32
  0
VERTEX
  5
336
  8
0
  6
CONTINUOUS
 62
     7
 10
882.3018205992485
 20
1232.737963038814
 30
0.0
 70
    32
  0
VERTEX
  5
337
  8
0
  6
CONTINUOUS
 62
     7
 10
882.2705144422121
 20
1232.737963038814
 30
0.0
 70
    32
  0
VERTEX
  5
338
  8
0
  6
CONTINUOUS
 62
     7
 10
882.2396768375378
 20
1232.737963038814
 30
0.0
 70
    32
  0
VERTEX
  5
339
  8
0
  6
CONTINUOUS
 62
     7
 10
882.209305587219
 20
1232.737963038814
 30
0.0
 70
    32
  0
VERTEX
  5
33A
  8
0
  6
CONTINUOUS
 62
     7
 10
882.17939849325
 20
1232.737963038814
 30
0.0
 70
    32
  0
VERTEX
  5
33B
  8
0
  6
CONTINUOUS
 62
     7
 10
882.1499533576244
 20
1232.737963038814
 30
0.0
 70
    32
  0
VERTEX
  5
33C
  8
0
  6
CONTINUOUS
 62
     7
 10
882.120967985526
 20
1232.737963038814
 30
0.0
 70
    32
  0
VERTEX
  5
33D
  8
0
  6
CONTINUOUS
 62
     7
 10
882.0924530552066
 20
1232.737963038814
 30
0.0
 70
    32
  0
VERTEX
  5
33E
  8
0
  6
CONTINUOUS
 62
     7
 10
882.0644614000898
 20
1232.737963038814
 30
0.0
 70
    32
  0
VERTEX
  5
33F
  8
0
  6
CONTINUOUS
 62
     7
 10
882.0370544690661
 20
1232.737963038814
 30
0.0
 70
    32
  0
VERTEX
  5
340
  8
0
  6
CONTINUOUS
 62
     7
 10
882.0102937110277
 20
1232.737963038815
 30
0.0
 70
    32
  0
VERTEX
  5
341
  8
0
  6
CONTINUOUS
 62
     7
 10
881.9842405748648
 20
1232.737963038814
 30
0.0
 70
    32
  0
VERTEX
  5
342
  8
0
  6
CONTINUOUS
 62
     7
 10
881.9589565094695
 20
1232.737963038814
 30
0.0
 70
    32
  0
VERTEX
  5
343
  8
0
  6
CONTINUOUS
 62
     7
 10
881.9345029637333
 20
1232.737963038814
 30
0.0
 70
    32
  0
VERTEX
  5
344
  8
0
  6
CONTINUOUS
 62
     7
 10
881.9109413865472
 20
1232.737963038814
 30
0.0
 70
    32
  0
VERTEX
  5
345
  8
0
  6
CONTINUOUS
 62
     7
 10
881.8883332268023
 20
1232.737963038815
 30
0.0
 70
    32
  0
VERTEX
  5
346
  8
0
  6
CONTINUOUS
 62
     7
 10
881.8667399333901
 20
1232.737963038814
 30
0.0
 70
    32
  0
VERTEX
  5
347
  8
0
  6
CONTINUOUS
 62
     7
 10
881.8461938683412
 20
1232.737963038814
 30
0.0
 70
    32
  0
VERTEX
  5
348
  8
0
  6
CONTINUOUS
 62
     7
 10
881.8265835052683
 20
1232.737963038814
 30
0.0
 70
    32
  0
VERTEX
  5
349
  8
0
  6
CONTINUOUS
 62
     7
 10
881.8077529044754
 20
1232.737963038815
 30
0.0
 70
    32
  0
VERTEX
  5
34A
  8
0
  6
CONTINUOUS
 62
     7
 10
881.7895461135054
 20
1232.737963038814
 30
0.0
 70
    32
  0
VERTEX
  5
34B
  8
0
  6
CONTINUOUS
 62
     7
 10
881.7718071799034
 20
1232.737963038815
 30
0.0
 70
    32
  0
VERTEX
  5
34C
  8
0
  6
CONTINUOUS
 62
     7
 10
881.754380151213
 20
1232.737963038815
 30
0.0
 70
    32
  0
VERTEX
  5
34D
  8
0
  6
CONTINUOUS
 62
     7
 10
881.7371090749785
 20
1232.737963038814
 30
0.0
 70
    32
  0
SEQEND
  5
679
  8
0
  6
CONTINUOUS
 62
     7
  0
LINE
  5
DC
  8
0
  6
CONTINUOUS
 62
     7
 10
883.5371090749863
 20
1233.737963038813
 30
0.0
 11
883.5371090750003
 21
1232.737963038815
 31
0.0
  0
POLYLINE
  5
DD
  8
0
  6
CONTINUOUS
 62
     7
 66
     1
 10
0.0
 20
0.0
 30
0.0
  0
VERTEX
  5
34E
  8
0
  6
CONTINUOUS
 62
     7
 10
881.7371090749785
 20
1271.480461680491
 30
0.0
  0
VERTEX
  5
34F
  8
0
  6
CONTINUOUS
 62
     7
 10
881.7459734172389
 20
1271.471665197682
 30
0.0
  0
VERTEX
  5
350
  8
0
  6
CONTINUOUS
 62
     7
 10
881.7549567361317
 20
1271.463019398293
 30
0.0
  0
VERTEX
  5
351
  8
0
  6
CONTINUOUS
 62
     7
 10
881.7641497617328
 20
1271.454639643707
 30
0.0
  0
VERTEX
  5
352
  8
0
  6
CONTINUOUS
 62
     7
 10
881.7735564145783
 20
1271.446532740856
 30
0.0
  0
VERTEX
  5
353
  8
0
  6
CONTINUOUS
 62
     7
 10
881.7831639934054
 20
1271.438684711281
 30
0.0
  0
VERTEX
  5
354
  8
0
  6
CONTINUOUS
 62
     7
 10
881.7929597969509
 20
1271.431081576523
 30
0.0
  0
VERTEX
  5
355
  8
0
  6
CONTINUOUS
 62
     7
 10
881.8029311239516
 20
1271.42370935812
 30
0.0
  0
VERTEX
  5
356
  8
0
  6
CONTINUOUS
 62
     7
 10
881.8130652731443
 20
1271.416554077613
 30
0.0
  0
VERTEX
  5
357
  8
0
  6
CONTINUOUS
 62
     7
 10
881.8233495432661
 20
1271.409601756543
 30
0.0
  0
VERTEX
  5
358
  8
0
  6
CONTINUOUS
 62
     7
 10
881.8337712330535
 20
1271.402838416449
 30
0.0
  0
VERTEX
  5
359
  8
0
  6
CONTINUOUS
 62
     7
 10
881.8443176412437
 20
1271.396250078871
 30
0.0
  0
VERTEX
  5
35A
  8
0
  6
CONTINUOUS
 62
     7
 10
881.8549760665735
 20
1271.38982276535
 30
0.0
  0
VERTEX
  5
35B
  8
0
  6
CONTINUOUS
 62
     7
 10
881.8657338077797
 20
1271.383542497426
 30
0.0
  0
VERTEX
  5
35C
  8
0
  6
CONTINUOUS
 62
     7
 10
881.8765781635991
 20
1271.377395296638
 30
0.0
  0
VERTEX
  5
35D
  8
0
  6
CONTINUOUS
 62
     7
 10
881.8874964327686
 20
1271.371367184528
 30
0.0
  0
VERTEX
  5
35E
  8
0
  6
CONTINUOUS
 62
     7
 10
881.8984759140251
 20
1271.365444182634
 30
0.0
  0
VERTEX
  5
35F
  8
0
  6
CONTINUOUS
 62
     7
 10
881.9095056749187
 20
1271.359614455542
 30
0.0
  0
VERTEX
  5
360
  8
0
  6
CONTINUOUS
 62
     7
 10
881.920584452331
 20
1271.353877882929
 30
0.0
  0
VERTEX
  5
361
  8
0
  6
CONTINUOUS
 62
     7
 10
881.9317142706055
 20
1271.34823832747
 30
0.0
  0
VERTEX
  5
362
  8
0
  6
CONTINUOUS
 62
     7
 10
881.9428971568059
 20
1271.342699655132
 30
0.0
  0
VERTEX
  5
363
  8
0
  6
CONTINUOUS
 62
     7
 10
881.9541351379946
 20
1271.337265731886
 30
0.0
  0
VERTEX
  5
364
  8
0
  6
CONTINUOUS
 62
     7
 10
881.9654302412357
 20
1271.331940423702
 30
0.0
  0
VERTEX
  5
365
  8
0
  6
CONTINUOUS
 62
     7
 10
881.9767844935924
 20
1271.326727596548
 30
0.0
  0
VERTEX
  5
366
  8
0
  6
CONTINUOUS
 62
     7
 10
881.9881999221278
 20
1271.321631116394
 30
0.0
  0
VERTEX
  5
367
  8
0
  6
CONTINUOUS
 62
     7
 10
881.9996785539055
 20
1271.31665484921
 30
0.0
  0
VERTEX
  5
368
  8
0
  6
CONTINUOUS
 62
     7
 10
882.0112224159884
 20
1271.311802660964
 30
0.0
  0
VERTEX
  5
369
  8
0
  6
CONTINUOUS
 62
     7
 10
882.0228335354406
 20
1271.307078417627
 30
0.0
  0
VERTEX
  5
36A
  8
0
  6
CONTINUOUS
 62
     7
 10
882.0345139393248
 20
1271.302485985167
 30
0.0
  0
VERTEX
  5
36B
  8
0
  6
CONTINUOUS
 62
     7
 10
882.0462656547046
 20
1271.298029229555
 30
0.0
  0
VERTEX
  5
36C
  8
0
  6
CONTINUOUS
 62
     7
 10
882.0580907086431
 20
1271.293712016758
 30
0.0
  0
VERTEX
  5
36D
  8
0
  6
CONTINUOUS
 62
     7
 10
882.0699911017622
 20
1271.289538218331
 30
0.0
  0
VERTEX
  5
36E
  8
0
  6
CONTINUOUS
 62
     7
 10
882.0819674492395
 20
1271.285511998339
 30
0.0
  0
VERTEX
  5
36F
  8
0
  6
CONTINUOUS
 62
     7
 10
882.0940183270924
 20
1271.281637951383
 30
0.0
  0
VERTEX
  5
370
  8
0
  6
CONTINUOUS
 62
     7
 10
882.1061421479966
 20
1271.277920706553
 30
0.0
  0
VERTEX
  5
371
  8
0
  6
CONTINUOUS
 62
     7
 10
882.1183373246279
 20
1271.274364892936
 30
0.0
  0
VERTEX
  5
372
  8
0
  6
CONTINUOUS
 62
     7
 10
882.1306022696631
 20
1271.270975139623
 30
0.0
  0
VERTEX
  5
373
  8
0
  6
CONTINUOUS
 62
     7
 10
882.1429353957776
 20
1271.267756075701
 30
0.0
  0
VERTEX
  5
374
  8
0
  6
CONTINUOUS
 62
     7
 10
882.1553351156483
 20
1271.26471233026
 30
0.0
  0
VERTEX
  5
375
  8
0
  6
CONTINUOUS
 62
     7
 10
882.1677998419506
 20
1271.261848532387
 30
0.0
  0
VERTEX
  5
376
  8
0
  6
CONTINUOUS
 62
     7
 10
882.1803279873611
 20
1271.259169311172
 30
0.0
  0
VERTEX
  5
377
  8
0
  6
CONTINUOUS
 62
     7
 10
882.1929179645558
 20
1271.256679295703
 30
0.0
  0
VERTEX
  5
378
  8
0
  6
CONTINUOUS
 62
     7
 10
882.2055681862107
 20
1271.254383115069
 30
0.0
  0
VERTEX
  5
379
  8
0
  6
CONTINUOUS
 62
     7
 10
882.2182770650022
 20
1271.252285398359
 30
0.0
  0
VERTEX
  5
37A
  8
0
  6
CONTINUOUS
 62
     7
 10
882.23104274662
 20
1271.250388845461
 30
0.0
  0
VERTEX
  5
37B
  8
0
  6
CONTINUOUS
 62
     7
 10
882.2438615613604
 20
1271.248683038481
 30
0.0
  0
VERTEX
  5
37C
  8
0
  6
CONTINUOUS
 62
     7
 10
882.2567290837414
 20
1271.247152098394
 30
0.0
  0
VERTEX
  5
37D
  8
0
  6
CONTINUOUS
 62
     7
 10
882.2696408857967
 20
1271.245780128211
 30
0.0
  0
VERTEX
  5
37E
  8
0
  6
CONTINUOUS
 62
     7
 10
882.2825925395579
 20
1271.244551230941
 30
0.0
  0
VERTEX
  5
37F
  8
0
  6
CONTINUOUS
 62
     7
 10
882.2955796170581
 20
1271.243449509594
 30
0.0
  0
VERTEX
  5
380
  8
0
  6
CONTINUOUS
 62
     7
 10
882.3085976903301
 20
1271.242459067179
 30
0.0
  0
VERTEX
  5
381
  8
0
  6
CONTINUOUS
 62
     7
 10
882.321642331406
 20
1271.241564006706
 30
0.0
  0
VERTEX
  5
382
  8
0
  6
CONTINUOUS
 62
     7
 10
882.3347091123192
 20
1271.240748431185
 30
0.0
  0
VERTEX
  5
383
  8
0
  6
CONTINUOUS
 62
     7
 10
882.3477936051017
 20
1271.239996443625
 30
0.0
  0
VERTEX
  5
384
  8
0
  6
CONTINUOUS
 62
     7
 10
882.3608913817864
 20
1271.239292147036
 30
0.0
  0
VERTEX
  5
385
  8
0
  6
CONTINUOUS
 62
     7
 10
882.3739980144054
 20
1271.238619644428
 30
0.0
  0
VERTEX
  5
386
  8
0
  6
CONTINUOUS
 62
     7
 10
882.3871090749922
 20
1271.23796303881
 30
0.0
  0
SEQEND
  5
67A
  8
0
  6
CONTINUOUS
 62
     7
  0
LINE
  5
DE
  8
0
  6
CONTINUOUS
 62
     7
 10
883.5371090749771
 20
1288.737963038818
 30
0.0
 11
883.5371090749777
 21
1279.629537196562
 31
0.0
  0
LINE
  5
DF
  8
0
  6
CONTINUOUS
 62
     7
 10
883.2371090749857
 20
1271.23796303881
 30
0.0
 11
882.3871090749922
 21
1271.23796303881
 31
0.0
  0
LINE
  5
E0
  8
0
  6
CONTINUOUS
 62
     7
 10
883.7371090749772
 20
1288.737963038818
 30
0.0
 11
883.5371090749771
 21
1288.737963038818
 31
0.0
  0
LINE
  5
E1
  8
0
  6
CONTINUOUS
 62
     7
 10
883.7371090749864
 20
1233.737963038813
 30
0.0
 11
883.5371090749863
 21
1233.737963038813
 31
0.0
  0
LINE
  5
E2
  8
0
  6
CONTINUOUS
 62
     7
 10
883.5371090749834
 20
1242.846388881063
 30
0.0
 11
883.5371090749863
 21
1233.737963038813
 31
0.0
  0
POLYLINE
  5
E3
  8
0
  6
CONTINUOUS
 62
     7
 66
     1
 10
0.0
 20
0.0
 30
0.0
  0
VERTEX
  5
387
  8
0
  6
CONTINUOUS
 62
     7
 10
882.3871090749813
 20
1251.23796303881
 30
0.0
  0
VERTEX
  5
388
  8
0
  6
CONTINUOUS
 62
     7
 10
882.3718365228053
 20
1251.237145067046
 30
0.0
  0
VERTEX
  5
389
  8
0
  6
CONTINUOUS
 62
     7
 10
882.35657109039
 20
1251.236303553604
 30
0.0
  0
VERTEX
  5
38A
  8
0
  6
CONTINUOUS
 62
     7
 10
882.341319897495
 20
1251.235414956806
 30
0.0
  0
VERTEX
  5
38B
  8
0
  6
CONTINUOUS
 62
     7
 10
882.3260900638811
 20
1251.234455734973
 30
0.0
  0
VERTEX
  5
38C
  8
0
  6
CONTINUOUS
 62
     7
 10
882.3108887093083
 20
1251.233402346428
 30
0.0
  0
VERTEX
  5
38D
  8
0
  6
CONTINUOUS
 62
     7
 10
882.2957229535373
 20
1251.232231249492
 30
0.0
  0
VERTEX
  5
38E
  8
0
  6
CONTINUOUS
 62
     7
 10
882.2805999163279
 20
1251.230918902487
 30
0.0
  0
VERTEX
  5
38F
  8
0
  6
CONTINUOUS
 62
     7
 10
882.2655267174409
 20
1251.229441763736
 30
0.0
  0
VERTEX
  5
390
  8
0
  6
CONTINUOUS
 62
     7
 10
882.2505104766364
 20
1251.227776291559
 30
0.0
  0
VERTEX
  5
391
  8
0
  6
CONTINUOUS
 62
     7
 10
882.2355583136747
 20
1251.22589894428
 30
0.0
  0
VERTEX
  5
392
  8
0
  6
CONTINUOUS
 62
     7
 10
882.2206773483161
 20
1251.223786180219
 30
0.0
  0
VERTEX
  5
393
  8
0
  6
CONTINUOUS
 62
     7
 10
882.2058747001354
 20
1251.221414458565
 30
0.0
  0
VERTEX
  5
394
  8
0
  6
CONTINUOUS
 62
     7
 10
882.1911561038054
 20
1251.218766711098
 30
0.0
  0
VERTEX
  5
395
  8
0
  6
CONTINUOUS
 62
     7
 10
882.1765225792483
 20
1251.215847904828
 30
0.0
  0
VERTEX
  5
396
  8
0
  6
CONTINUOUS
 62
     7
 10
882.1619741439749
 20
1251.212667691716
 30
0.0
  0
VERTEX
  5
397
  8
0
  6
CONTINUOUS
 62
     7
 10
882.1475108154959
 20
1251.209235723722
 30
0.0
  0
VERTEX
  5
398
  8
0
  6
CONTINUOUS
 62
     7
 10
882.1331326113232
 20
1251.205561652806
 30
0.0
  0
VERTEX
  5
399
  8
0
  6
CONTINUOUS
 62
     7
 10
882.1188395489672
 20
1251.201655130931
 30
0.0
  0
VERTEX
  5
39A
  8
0
  6
CONTINUOUS
 62
     7
 10
882.1046316459389
 20
1251.197525810055
 30
0.0
  0
VERTEX
  5
39B
  8
0
  6
CONTINUOUS
 62
     7
 10
882.0905089197495
 20
1251.19318334214
 30
0.0
  0
VERTEX
  5
39C
  8
0
  6
CONTINUOUS
 62
     7
 10
882.0764713879099
 20
1251.188637379146
 30
0.0
  0
VERTEX
  5
39D
  8
0
  6
CONTINUOUS
 62
     7
 10
882.0625190679311
 20
1251.183897573034
 30
0.0
  0
VERTEX
  5
39E
  8
0
  6
CONTINUOUS
 62
     7
 10
882.0486519773241
 20
1251.178973575765
 30
0.0
  0
VERTEX
  5
39F
  8
0
  6
CONTINUOUS
 62
     7
 10
882.0348701335996
 20
1251.173875039298
 30
0.0
  0
VERTEX
  5
3A0
  8
0
  6
CONTINUOUS
 62
     7
 10
882.0211739296154
 20
1251.168610595739
 30
0.0
  0
VERTEX
  5
3A1
  8
0
  6
CONTINUOUS
 62
     7
 10
882.0075671503715
 20
1251.163179660373
 30
0.0
  0
VERTEX
  5
3A2
  8
0
  6
CONTINUOUS
 62
     7
 10
881.9940553820111
 20
1251.157576754589
 30
0.0
  0
VERTEX
  5
3A3
  8
0
  6
CONTINUOUS
 62
     7
 10
881.9806442272693
 20
1251.151796354692
 30
0.0
  0
VERTEX
  5
3A4
  8
0
  6
CONTINUOUS
 62
     7
 10
881.9673392888816
 20
1251.145832936985
 30
0.0
  0
VERTEX
  5
3A5
  8
0
  6
CONTINUOUS
 62
     7
 10
881.9541461695829
 20
1251.139680977774
 30
0.0
  0
VERTEX
  5
3A6
  8
0
  6
CONTINUOUS
 62
     7
 10
881.9410704721091
 20
1251.133334953364
 30
0.0
  0
VERTEX
  5
3A7
  8
0
  6
CONTINUOUS
 62
     7
 10
881.9281177991951
 20
1251.126789340059
 30
0.0
  0
VERTEX
  5
3A8
  8
0
  6
CONTINUOUS
 62
     7
 10
881.9152937535766
 20
1251.120038614164
 30
0.0
  0
VERTEX
  5
3A9
  8
0
  6
CONTINUOUS
 62
     7
 10
881.9026039379888
 20
1251.113077251983
 30
0.0
  0
VERTEX
  5
3AA
  8
0
  6
CONTINUOUS
 62
     7
 10
881.8900539551668
 20
1251.105899729821
 30
0.0
  0
VERTEX
  5
3AB
  8
0
  6
CONTINUOUS
 62
     7
 10
881.8776494078462
 20
1251.098500523984
 30
0.0
  0
VERTEX
  5
3AC
  8
0
  6
CONTINUOUS
 62
     7
 10
881.8653942946625
 20
1251.090876267681
 30
0.0
  0
VERTEX
  5
3AD
  8
0
  6
CONTINUOUS
 62
     7
 10
881.8532809253535
 20
1251.083039311251
 30
0.0
  0
VERTEX
  5
3AE
  8
0
  6
CONTINUOUS
 62
     7
 10
881.8412964350761
 20
1251.075008962882
 30
0.0
  0
VERTEX
  5
3AF
  8
0
  6
CONTINUOUS
 62
     7
 10
881.8294279359272
 20
1251.066804561768
 30
0.0
  0
VERTEX
  5
3B0
  8
0
  6
CONTINUOUS
 62
     7
 10
881.8176625400035
 20
1251.058445447102
 30
0.0
  0
VERTEX
  5
3B1
  8
0
  6
CONTINUOUS
 62
     7
 10
881.8059873594018
 20
1251.049950958079
 30
0.0
  0
VERTEX
  5
3B2
  8
0
  6
CONTINUOUS
 62
     7
 10
881.794389506219
 20
1251.041340433893
 30
0.0
  0
VERTEX
  5
3B3
  8
0
  6
CONTINUOUS
 62
     7
 10
881.782856092552
 20
1251.032633213737
 30
0.0
  0
VERTEX
  5
3B4
  8
0
  6
CONTINUOUS
 62
     7
 10
881.7713742304977
 20
1251.023848636805
 30
0.0
  0
VERTEX
  5
3B5
  8
0
  6
CONTINUOUS
 62
     7
 10
881.7599310321527
 20
1251.015006042291
 30
0.0
  0
VERTEX
  5
3B6
  8
0
  6
CONTINUOUS
 62
     7
 10
881.7485136096143
 20
1251.00612476939
 30
0.0
  0
VERTEX
  5
3B7
  8
0
  6
CONTINUOUS
 62
     7
 10
881.7371090749787
 20
1250.997224157295
 30
0.0
  0
SEQEND
  5
67B
  8
0
  6
CONTINUOUS
 62
     7
  0
LINE
  5
E4
  8
0
  6
CONTINUOUS
 62
     7
 10
882.3871090749813
 20
1251.23796303881
 30
0.0
 11
883.2371090749856
 21
1251.237963038813
 31
0.0
  0
LINE
  5
E5
  8
0
  6
CONTINUOUS
 62
     7
 10
883.737109074977
 20
1289.737963038817
 30
0.0
 11
883.5371090749769
 21
1289.737963038817
 31
0.0
  0
LINE
  5
E6
  8
0
  6
CONTINUOUS
 62
     7
 10
883.7371090750004
 20
1232.737963038815
 30
0.0
 11
883.5371090750003
 21
1232.737963038815
 31
0.0
  0
LINE
  5
E7
  8
0
  6
CONTINUOUS
 62
     7
 10
881.7371090749785
 20
1267.73796303881
 30
0.0
 11
883.737109074984
 21
1267.737963038811
 31
0.0
  0
LINE
  5
E8
  8
0
  6
CONTINUOUS
 62
     7
 10
883.7371090749839
 20
1254.737963038809
 30
0.0
 11
881.7371090749785
 21
1254.737963038812
 31
0.0
  0
LINE
  5
E9
  8
0
  6
CONTINUOUS
 62
     7
 10
882.4658265297984
 20
1253.787963038809
 30
0.0
 11
882.4658265297979
 21
1254.737963038812
 31
0.0
  0
LINE
  5
EA
  8
0
  6
CONTINUOUS
 62
     7
 10
882.465826529793
 20
1267.737963038811
 30
0.0
 11
882.4658265297927
 21
1268.68796303881
 31
0.0
  0
LINE
  5
EB
  8
0
  6
CONTINUOUS
 62
     7
 10
882.4658265297984
 20
1253.787963038809
 30
0.0
 11
881.7371090749785
 21
1253.787963038809
 31
0.0
  0
LINE
  5
EC
  8
0
  6
CONTINUOUS
 62
     7
 10
882.4658265297927
 20
1268.68796303881
 30
0.0
 11
881.7371090749785
 21
1268.68796303881
 31
0.0
  0
LINE
  5
ED
  8
0
  6
CONTINUOUS
 62
     7
 10
882.5271960253937
 20
1253.787963038812
 30
0.0
 11
882.527196025394
 21
1254.737963038812
 31
0.0
  0
LINE
  5
EE
  8
0
  6
CONTINUOUS
 62
     7
 10
882.5271960253984
 20
1267.737963038811
 30
0.0
 11
882.5271960253988
 21
1268.687963038809
 31
0.0
  0
LINE
  5
EF
  8
0
  6
CONTINUOUS
 62
     7
 10
882.5271960253937
 20
1253.787963038812
 30
0.0
 11
882.4658265297984
 21
1253.787963038809
 31
0.0
  0
LINE
  5
F0
  8
0
  6
CONTINUOUS
 62
     7
 10
882.5271960253988
 20
1268.687963038809
 30
0.0
 11
882.4658265297927
 21
1268.68796303881
 31
0.0
  0
LINE
  5
F1
  8
0
  6
CONTINUOUS
 62
     7
 10
881.7371090749785
 20
1703.73796303881
 30
0.0
 11
883.7371090749839
 21
1703.737963038811
 31
0.0
  0
LINE
  5
F2
  8
0
  6
CONTINUOUS
 62
     7
 10
883.7371090749838
 20
1690.737963038809
 30
0.0
 11
881.7371090749785
 21
1690.737963038812
 31
0.0
  0
LINE
  5
F3
  8
0
  6
CONTINUOUS
 62
     7
 10
882.4658265297983
 20
1689.787963038809
 30
0.0
 11
882.4658265297979
 21
1690.737963038812
 31
0.0
  0
LINE
  5
F4
  8
0
  6
CONTINUOUS
 62
     7
 10
882.4658265297929
 20
1703.737963038811
 30
0.0
 11
882.4658265297926
 21
1704.68796303881
 31
0.0
  0
LINE
  5
F5
  8
0
  6
CONTINUOUS
 62
     7
 10
882.4658265297983
 20
1689.787963038809
 30
0.0
 11
881.7371090749785
 21
1689.787963038809
 31
0.0
  0
LINE
  5
F6
  8
0
  6
CONTINUOUS
 62
     7
 10
882.4658265297926
 20
1704.68796303881
 30
0.0
 11
881.7371090749785
 21
1704.68796303881
 31
0.0
  0
LINE
  5
F7
  8
0
  6
CONTINUOUS
 62
     7
 10
882.5271960253936
 20
1689.787963038812
 30
0.0
 11
882.5271960253939
 21
1690.737963038812
 31
0.0
  0
LINE
  5
F8
  8
0
  6
CONTINUOUS
 62
     7
 10
882.5271960253983
 20
1703.737963038811
 30
0.0
 11
882.5271960253987
 21
1704.687963038808
 31
0.0
  0
LINE
  5
F9
  8
0
  6
CONTINUOUS
 62
     7
 10
882.5271960253936
 20
1689.787963038812
 30
0.0
 11
882.4658265297983
 21
1689.787963038809
 31
0.0
  0
LINE
  5
FA
  8
0
  6
CONTINUOUS
 62
     7
 10
882.5271960253987
 20
1704.687963038808
 30
0.0
 11
882.4658265297926
 21
1704.68796303881
 31
0.0
  0
LINE
  5
FB
  8
0
  6
CONTINUOUS
 62
     7
 10
883.237109074991
 20
1253.76296303881
 30
0.0
 11
882.9255432721538
 21
1253.76296303881
 31
0.0
  0
LINE
  5
FC
  8
0
  6
CONTINUOUS
 62
     7
 10
882.9255432721569
 20
1268.71296303881
 30
0.0
 11
882.9255432721567
 21
1267.737963038811
 31
0.0
  0
LINE
  5
FD
  8
0
  6
CONTINUOUS
 62
     7
 10
882.9255432721541
 20
1254.737963038812
 30
0.0
 11
882.9255432721538
 21
1253.76296303881
 31
0.0
  0
LINE
  5
FE
  8
0
  6
CONTINUOUS
 62
     7
 10
883.2371090749758
 20
1268.71296303881
 30
0.0
 11
882.9255432721569
 21
1268.71296303881
 31
0.0
  0
LINE
  5
FF
  8
0
  6
CONTINUOUS
 62
     7
 10
882.9255432721538
 20
1253.76296303881
 30
0.0
 11
882.8864006776944
 21
1253.76296303881
 31
0.0
  0
LINE
  5
100
  8
0
  6
CONTINUOUS
 62
     7
 10
882.9255432721569
 20
1268.71296303881
 30
0.0
 11
882.8864006776972
 21
1268.71296303881
 31
0.0
  0
LINE
  5
101
  8
0
  6
CONTINUOUS
 62
     7
 10
883.237109074991
 20
1689.76296303881
 30
0.0
 11
882.9255432721537
 21
1689.76296303881
 31
0.0
  0
LINE
  5
102
  8
0
  6
CONTINUOUS
 62
     7
 10
882.9255432721568
 20
1704.71296303881
 30
0.0
 11
882.9255432721566
 21
1703.737963038811
 31
0.0
  0
LINE
  5
103
  8
0
  6
CONTINUOUS
 62
     7
 10
882.9255432721538
 20
1690.737963038812
 30
0.0
 11
882.9255432721537
 21
1689.76296303881
 31
0.0
  0
LINE
  5
104
  8
0
  6
CONTINUOUS
 62
     7
 10
883.2371090749757
 20
1704.71296303881
 30
0.0
 11
882.9255432721568
 21
1704.71296303881
 31
0.0
  0
LINE
  5
105
  8
0
  6
CONTINUOUS
 62
     7
 10
882.9255432721568
 20
1704.71296303881
 30
0.0
 11
882.8864006776971
 21
1704.71296303881
 31
0.0
  0
LINE
  5
106
  8
0
  6
CONTINUOUS
 62
     7
 10
882.9255432721537
 20
1689.76296303881
 30
0.0
 11
882.8864006776942
 21
1689.76296303881
 31
0.0
  0
LINE
  5
107
  8
0
  6
CONTINUOUS
 62
     8
 10
883.537109074977
 20
1724.737963038818
 30
0.0
 11
881.7371090749851
 21
1724.737963038818
 31
0.0
  0
LINE
  5
108
  8
0
  6
CONTINUOUS
 62
     8
 10
883.5371090749862
 20
1669.737963038813
 30
0.0
 11
881.7371090749851
 21
1669.737963038814
 31
0.0
  0
LINE
  5
109
  8
0
  6
CONTINUOUS
 62
     8
 10
882.3871090749859
 20
1705.612963038811
 30
0.0
 11
882.3871090749832
 21
1707.237963038808
 31
0.0
  0
LINE
  5
10A
  8
0
  6
CONTINUOUS
 62
     8
 10
882.3871090749984
 20
1687.237963038812
 30
0.0
 11
882.3871090749857
 21
1688.862963038812
 31
0.0
  0
LINE
  5
10B
  8
0
  6
CONTINUOUS
 62
     8
 10
883.5371090749771
 20
1288.737963038818
 30
0.0
 11
881.7371090749851
 21
1288.737963038818
 31
0.0
  0
LINE
  5
10C
  8
0
  6
CONTINUOUS
 62
     8
 10
883.5371090749863
 20
1233.737963038813
 30
0.0
 11
881.7371090749851
 21
1233.737963038814
 31
0.0
  0
LINE
  5
10D
  8
0
  6
CONTINUOUS
 62
     8
 10
882.387109074986
 20
1269.612963038811
 30
0.0
 11
882.3871090749833
 21
1271.237963038808
 31
0.0
  0
LINE
  5
10E
  8
0
  6
CONTINUOUS
 62
     8
 10
882.3871090749985
 20
1251.237963038812
 30
0.0
 11
882.3871090749859
 21
1252.862963038812
 31
0.0
  0
LINE
  5
10F
  8
0
  6
CONTINUOUS
 62
     7
 10
3767.696512025615
 20
1181.237963038812
 30
0.0
 11
3770.996512025616
 21
1181.237963038812
 31
0.0
  0
LINE
  5
110
  8
0
  6
CONTINUOUS
 62
     7
 10
3767.696512025615
 20
1181.237963038812
 30
0.0
 11
3767.696512025615
 21
1777.237963038813
 31
0.0
  0
LINE
  5
111
  8
0
  6
CONTINUOUS
 62
     7
 10
3767.696512025615
 20
1777.237963038813
 30
0.0
 11
3770.996512025616
 21
1777.237963038813
 31
0.0
  0
LINE
  5
112
  8
0
  6
CONTINUOUS
 62
     7
 10
3770.996512025621
 20
1181.237963038812
 30
0.0
 11
3770.996512025621
 21
1777.237963038812
 31
0.0
  0
LINE
  5
113
  8
0
  6
CONTINUOUS
 62
     7
 10
3770.996512025621
 20
1181.237963038812
 30
0.0
 11
3785.996512025621
 21
1181.237963038812
 31
0.0
  0
LINE
  5
114
  8
0
  6
CONTINUOUS
 62
     7
 10
3785.996512025621
 20
1181.237963038812
 30
0.0
 11
3785.996512025622
 21
1777.237963038812
 31
0.0
  0
LINE
  5
115
  8
0
  6
CONTINUOUS
 62
     7
 10
3770.996512025621
 20
1777.237963038812
 30
0.0
 11
3785.996512025622
 21
1777.237963038812
 31
0.0
  0
LINE
  5
116
  8
0
  6
CONTINUOUS
 62
     7
 10
3787.99651202562
 20
1179.237963038812
 30
0.0
 11
3917.99651202562
 21
1179.237963038812
 31
0.0
  0
LINE
  5
117
  8
0
  6
CONTINUOUS
 62
     7
 10
3787.99651202562
 20
1179.237963038812
 30
0.0
 11
3787.99651202562
 21
1779.237963038812
 31
0.0
  0
LINE
  5
118
  8
0
  6
CONTINUOUS
 62
     7
 10
3787.99651202562
 20
1779.237963038812
 30
0.0
 11
3917.99651202562
 21
1779.237963038812
 31
0.0
  0
LINE
  5
119
  8
0
  6
CONTINUOUS
 62
     7
 10
3917.99651202562
 20
1179.237963038812
 30
0.0
 11
3917.99651202562
 21
1779.237963038812
 31
0.0
  0
LINE
  5
11A
  8
0
  6
CONTINUOUS
 62
     7
 10
3787.861696950664
 20
1252.862963038813
 30
0.0
 11
3787.861696950664
 21
1253.787963038814
 31
0.0
  0
LINE
  5
11B
  8
0
  6
CONTINUOUS
 62
     7
 10
3787.861696950672
 20
1268.687963038815
 30
0.0
 11
3787.861696950673
 21
1269.612963038814
 31
0.0
  0
LINE
  5
11C
  8
0
  6
CONTINUOUS
 62
     7
 10
3787.861696950673
 20
1269.612963038814
 30
0.0
 11
3787.996512025618
 21
1269.612963038814
 31
0.0
  0
LINE
  5
11D
  8
0
  6
CONTINUOUS
 62
     7
 10
3787.996512025618
 20
1252.862963038813
 30
0.0
 11
3787.861696950664
 21
1252.862963038813
 31
0.0
  0
LINE
  5
11E
  8
0
  6
CONTINUOUS
 62
     7
 10
3786.496512025602
 20
1269.612963038814
 30
0.0
 11
3787.861696950673
 21
1269.612963038814
 31
0.0
  0
LINE
  5
11F
  8
0
  6
CONTINUOUS
 62
     7
 10
3787.861696950664
 20
1252.862963038813
 30
0.0
 11
3786.496512025612
 21
1252.862963038813
 31
0.0
  0
LINE
  5
120
  8
0
  6
CONTINUOUS
 62
     7
 10
3787.861696950664
 20
1688.862963038813
 30
0.0
 11
3787.861696950664
 21
1689.787963038814
 31
0.0
  0
LINE
  5
121
  8
0
  6
CONTINUOUS
 62
     7
 10
3787.861696950673
 20
1704.687963038815
 30
0.0
 11
3787.861696950673
 21
1705.612963038814
 31
0.0
  0
LINE
  5
122
  8
0
  6
CONTINUOUS
 62
     7
 10
3787.861696950673
 20
1705.612963038814
 30
0.0
 11
3787.996512025618
 21
1705.612963038814
 31
0.0
  0
LINE
  5
123
  8
0
  6
CONTINUOUS
 62
     7
 10
3787.996512025618
 20
1688.862963038813
 30
0.0
 11
3787.861696950664
 21
1688.862963038813
 31
0.0
  0
LINE
  5
124
  8
0
  6
CONTINUOUS
 62
     7
 10
3786.496512025602
 20
1705.612963038814
 30
0.0
 11
3787.861696950673
 21
1705.612963038814
 31
0.0
  0
LINE
  5
125
  8
0
  6
CONTINUOUS
 62
     7
 10
3787.861696950664
 20
1688.862963038813
 30
0.0
 11
3786.496512025612
 21
1688.862963038813
 31
0.0
  0
LINE
  5
126
  8
0
  6
CONTINUOUS
 62
     7
 10
3786.496512025612
 20
1252.282004899755
 30
0.0
 11
3785.996512025621
 21
1252.282004899754
 31
0.0
  0
LINE
  5
127
  8
0
  6
CONTINUOUS
 62
     7
 10
3786.496512025612
 20
1253.837963039047
 30
0.0
 11
3785.996512025612
 21
1253.837963039047
 31
0.0
  0
LINE
  5
128
  8
0
  6
CONTINUOUS
 62
     7
 10
3786.496512025612
 20
1253.837963039047
 30
0.0
 11
3786.496512025612
 21
1252.282004899755
 31
0.0
  0
LINE
  5
129
  8
0
  6
CONTINUOUS
 62
     7
 10
3785.996512025621
 20
1270.193921177883
 30
0.0
 11
3786.496512025606
 21
1270.193921177882
 31
0.0
  0
LINE
  5
12A
  8
0
  6
CONTINUOUS
 62
     7
 10
3786.496512025606
 20
1270.193921177882
 30
0.0
 11
3786.496512025597
 21
1268.637963038596
 31
0.0
  0
LINE
  5
12B
  8
0
  6
CONTINUOUS
 62
     7
 10
3785.996512025597
 20
1268.637963038596
 30
0.0
 11
3786.496512025597
 21
1268.637963038596
 31
0.0
  0
LINE
  5
12C
  8
0
  6
CONTINUOUS
 62
     7
 10
3786.196512025611
 20
1242.846388881062
 30
0.0
 11
3786.496512025611
 21
1242.846388881062
 31
0.0
  0
LINE
  5
12D
  8
0
  6
CONTINUOUS
 62
     7
 10
3785.996512025611
 20
1242.846388881062
 30
0.0
 11
3786.196512025611
 21
1242.846388881062
 31
0.0
  0
LINE
  5
12E
  8
0
  6
CONTINUOUS
 62
     7
 10
3786.496512025611
 20
1242.846388881062
 30
0.0
 11
3786.496512025612
 21
1252.282004899755
 31
0.0
  0
LINE
  5
12F
  8
0
  6
CONTINUOUS
 62
     7
 10
3786.196512025605
 20
1279.629537196562
 30
0.0
 11
3785.996512025605
 21
1279.629537196562
 31
0.0
  0
LINE
  5
130
  8
0
  6
CONTINUOUS
 62
     7
 10
3786.496512025605
 20
1279.629537196562
 30
0.0
 11
3786.196512025605
 21
1279.629537196562
 31
0.0
  0
LINE
  5
131
  8
0
  6
CONTINUOUS
 62
     7
 10
3786.496512025606
 20
1270.193921177882
 30
0.0
 11
3786.496512025605
 21
1279.629537196562
 31
0.0
  0
POLYLINE
  5
132
  8
0
  6
CONTINUOUS
 62
     7
 10
0.0
 20
0.0
 30
0.0
 66
     1
 70
     8
  0
VERTEX
  5
3B8
  8
0
  6
CONTINUOUS
 62
     7
 10
3787.996512025618
 20
1232.737963038813
 30
0.0
 70
    32
  0
VERTEX
  5
3B9
  8
0
  6
CONTINUOUS
 62
     7
 10
3787.979243200238
 20
1232.737963038813
 30
0.0
 70
    32
  0
VERTEX
  5
3BA
  8
0
  6
CONTINUOUS
 62
     7
 10
3787.961818116768
 20
1232.737963038813
 30
0.0
 70
    32
  0
VERTEX
  5
3BB
  8
0
  6
CONTINUOUS
 62
     7
 10
3787.944080517113
 20
1232.737963038813
 30
0.0
 70
    32
  0
VERTEX
  5
3BC
  8
0
  6
CONTINUOUS
 62
     7
 10
3787.925874143186
 20
1232.737963038813
 30
0.0
 70
    32
  0
VERTEX
  5
3BD
  8
0
  6
CONTINUOUS
 62
     7
 10
3787.907042736893
 20
1232.737963038813
 30
0.0
 70
    32
  0
VERTEX
  5
3BE
  8
0
  6
CONTINUOUS
 62
     7
 10
3787.887430040144
 20
1232.737963038813
 30
0.0
 70
    32
  0
VERTEX
  5
3BF
  8
0
  6
CONTINUOUS
 62
     7
 10
3787.866879816856
 20
1232.737963038813
 30
0.0
 70
    32
  0
VERTEX
  5
3C0
  8
0
  6
CONTINUOUS
 62
     7
 10
3787.845282029236
 20
1232.737963038813
 30
0.0
 70
    32
  0
VERTEX
  5
3C1
  8
0
  6
CONTINUOUS
 62
     7
 10
3787.822670233916
 20
1232.737963038813
 30
0.0
 70
    32
  0
VERTEX
  5
3C2
  8
0
  6
CONTINUOUS
 62
     7
 10
3787.799105805135
 20
1232.737963038813
 30
0.0
 70
    32
  0
VERTEX
  5
3C3
  8
0
  6
CONTINUOUS
 62
     7
 10
3787.774650117134
 20
1232.737963038813
 30
0.0
 70
    32
  0
VERTEX
  5
3C4
  8
0
  6
CONTINUOUS
 62
     7
 10
3787.749364544155
 20
1232.737963038813
 30
0.0
 70
    32
  0
VERTEX
  5
3C5
  8
0
  6
CONTINUOUS
 62
     7
 10
3787.723310460441
 20
1232.737963038813
 30
0.0
 70
    32
  0
VERTEX
  5
3C6
  8
0
  6
CONTINUOUS
 62
     7
 10
3787.696549240231
 20
1232.737963038813
 30
0.0
 70
    32
  0
VERTEX
  5
3C7
  8
0
  6
CONTINUOUS
 62
     7
 10
3787.669142257767
 20
1232.737963038813
 30
0.0
 70
    32
  0
VERTEX
  5
3C8
  8
0
  6
CONTINUOUS
 62
     7
 10
3787.641150887291
 20
1232.737963038813
 30
0.0
 70
    32
  0
VERTEX
  5
3C9
  8
0
  6
CONTINUOUS
 62
     7
 10
3787.612636503043
 20
1232.737963038813
 30
0.0
 70
    32
  0
VERTEX
  5
3CA
  8
0
  6
CONTINUOUS
 62
     7
 10
3787.583651852188
 20
1232.737963038813
 30
0.0
 70
    32
  0
VERTEX
  5
3CB
  8
0
  6
CONTINUOUS
 62
     7
 10
3787.554207543308
 20
1232.737963038813
 30
0.0
 70
    32
  0
VERTEX
  5
3CC
  8
0
  6
CONTINUOUS
 62
     7
 10
3787.524301338899
 20
1232.737963038812
 30
0.0
 70
    32
  0
VERTEX
  5
3CD
  8
0
  6
CONTINUOUS
 62
     7
 10
3787.493930998352
 20
1232.737963038813
 30
0.0
 70
    32
  0
VERTEX
  5
3CE
  8
0
  6
CONTINUOUS
 62
     7
 10
3787.46309428106
 20
1232.737963038813
 30
0.0
 70
    32
  0
VERTEX
  5
3CF
  8
0
  6
CONTINUOUS
 62
     7
 10
3787.431788946412
 20
1232.737963038813
 30
0.0
 70
    32
  0
VERTEX
  5
3D0
  8
0
  6
CONTINUOUS
 62
     7
 10
3787.4000127538
 20
1232.737963038813
 30
0.0
 70
    32
  0
VERTEX
  5
3D1
  8
0
  6
CONTINUOUS
 62
     7
 10
3787.367763462616
 20
1232.737963038813
 30
0.0
 70
    32
  0
VERTEX
  5
3D2
  8
0
  6
CONTINUOUS
 62
     7
 10
3787.335038832251
 20
1232.737963038813
 30
0.0
 70
    32
  0
VERTEX
  5
3D3
  8
0
  6
CONTINUOUS
 62
     7
 10
3787.301836622096
 20
1232.737963038813
 30
0.0
 70
    32
  0
VERTEX
  5
3D4
  8
0
  6
CONTINUOUS
 62
     7
 10
3787.268156183288
 20
1232.737963038813
 30
0.0
 70
    32
  0
VERTEX
  5
3D5
  8
0
  6
CONTINUOUS
 62
     7
 10
3787.234008789964
 20
1232.737963038813
 30
0.0
 70
    32
  0
VERTEX
  5
3D6
  8
0
  6
CONTINUOUS
 62
     7
 10
3787.199411123053
 20
1232.737963038813
 30
0.0
 70
    32
  0
VERTEX
  5
3D7
  8
0
  6
CONTINUOUS
 62
     7
 10
3787.164379890364
 20
1232.737963038813
 30
0.0
 70
    32
  0
VERTEX
  5
3D8
  8
0
  6
CONTINUOUS
 62
     7
 10
3787.128931799702
 20
1232.737963038813
 30
0.0
 70
    32
  0
VERTEX
  5
3D9
  8
0
  6
CONTINUOUS
 62
     7
 10
3787.093083558876
 20
1232.737963038813
 30
0.0
 70
    32
  0
VERTEX
  5
3DA
  8
0
  6
CONTINUOUS
 62
     7
 10
3787.056851875694
 20
1232.737963038813
 30
0.0
 70
    32
  0
VERTEX
  5
3DB
  8
0
  6
CONTINUOUS
 62
     7
 10
3787.020253457963
 20
1232.737963038813
 30
0.0
 70
    32
  0
VERTEX
  5
3DC
  8
0
  6
CONTINUOUS
 62
     7
 10
3786.98330501349
 20
1232.737963038813
 30
0.0
 70
    32
  0
VERTEX
  5
3DD
  8
0
  6
CONTINUOUS
 62
     7
 10
3786.946023250086
 20
1232.737963038813
 30
0.0
 70
    32
  0
VERTEX
  5
3DE
  8
0
  6
CONTINUOUS
 62
     7
 10
3786.908424873548
 20
1232.737963038813
 30
0.0
 70
    32
  0
VERTEX
  5
3DF
  8
0
  6
CONTINUOUS
 62
     7
 10
3786.870526564405
 20
1232.737963038812
 30
0.0
 70
    32
  0
VERTEX
  5
3E0
  8
0
  6
CONTINUOUS
 62
     7
 10
3786.832344985899
 20
1232.737963038813
 30
0.0
 70
    32
  0
VERTEX
  5
3E1
  8
0
  6
CONTINUOUS
 62
     7
 10
3786.79389680093
 20
1232.737963038812
 30
0.0
 70
    32
  0
VERTEX
  5
3E2
  8
0
  6
CONTINUOUS
 62
     7
 10
3786.755198672403
 20
1232.737963038812
 30
0.0
 70
    32
  0
VERTEX
  5
3E3
  8
0
  6
CONTINUOUS
 62
     7
 10
3786.716267263222
 20
1232.737963038812
 30
0.0
 70
    32
  0
VERTEX
  5
3E4
  8
0
  6
CONTINUOUS
 62
     7
 10
3786.67711923629
 20
1232.737963038811
 30
0.0
 70
    32
  0
VERTEX
  5
3E5
  8
0
  6
CONTINUOUS
 62
     7
 10
3786.637771254513
 20
1232.737963038811
 30
0.0
 70
    32
  0
VERTEX
  5
3E6
  8
0
  6
CONTINUOUS
 62
     7
 10
3786.598239980794
 20
1232.737963038811
 30
0.0
 70
    32
  0
VERTEX
  5
3E7
  8
0
  6
CONTINUOUS
 62
     7
 10
3786.558542078035
 20
1232.73796303881
 30
0.0
 70
    32
  0
VERTEX
  5
3E8
  8
0
  6
CONTINUOUS
 62
     7
 10
3786.518694209142
 20
1232.73796303881
 30
0.0
 70
    32
  0
VERTEX
  5
3E9
  8
0
  6
CONTINUOUS
 62
     7
 10
3786.478713037018
 20
1232.73796303881
 30
0.0
 70
    32
  0
VERTEX
  5
3EA
  8
0
  6
CONTINUOUS
 62
     7
 10
3786.438615224568
 20
1232.73796303881
 30
0.0
 70
    32
  0
VERTEX
  5
3EB
  8
0
  6
CONTINUOUS
 62
     7
 10
3786.398417434693
 20
1232.737963038809
 30
0.0
 70
    32
  0
VERTEX
  5
3EC
  8
0
  6
CONTINUOUS
 62
     7
 10
3786.358136330301
 20
1232.737963038809
 30
0.0
 70
    32
  0
VERTEX
  5
3ED
  8
0
  6
CONTINUOUS
 62
     7
 10
3786.317788574292
 20
1232.737963038809
 30
0.0
 70
    32
  0
VERTEX
  5
3EE
  8
0
  6
CONTINUOUS
 62
     7
 10
3786.277390829571
 20
1232.737963038808
 30
0.0
 70
    32
  0
VERTEX
  5
3EF
  8
0
  6
CONTINUOUS
 62
     7
 10
3786.236959759044
 20
1232.737963038808
 30
0.0
 70
    32
  0
VERTEX
  5
3F0
  8
0
  6
CONTINUOUS
 62
     7
 10
3786.196512025612
 20
1232.737963038807
 30
0.0
 70
    32
  0
SEQEND
  5
67C
  8
0
  6
CONTINUOUS
 62
     7
  0
LINE
  5
133
  8
0
  6
CONTINUOUS
 62
     7
 10
3786.196512025611
 20
1233.737963038807
 30
0.0
 11
3786.196512025612
 21
1232.737963038807
 31
0.0
  0
POLYLINE
  5
134
  8
0
  6
CONTINUOUS
 62
     7
 10
0.0
 20
0.0
 30
0.0
 66
     1
 70
     8
  0
VERTEX
  5
3F1
  8
0
  6
CONTINUOUS
 62
     7
 10
3786.196512025588
 20
1289.73796303881
 30
0.0
 70
    32
  0
VERTEX
  5
3F2
  8
0
  6
CONTINUOUS
 62
     7
 10
3786.236960504285
 20
1289.73796303881
 30
0.0
 70
    32
  0
VERTEX
  5
3F3
  8
0
  6
CONTINUOUS
 62
     7
 10
3786.277392316588
 20
1289.73796303881
 30
0.0
 70
    32
  0
VERTEX
  5
3F4
  8
0
  6
CONTINUOUS
 62
     7
 10
3786.317790796102
 20
1289.73796303881
 30
0.0
 70
    32
  0
VERTEX
  5
3F5
  8
0
  6
CONTINUOUS
 62
     7
 10
3786.35813927643
 20
1289.73796303881
 30
0.0
 70
    32
  0
VERTEX
  5
3F6
  8
0
  6
CONTINUOUS
 62
     7
 10
3786.398421091179
 20
1289.73796303881
 30
0.0
 70
    32
  0
VERTEX
  5
3F7
  8
0
  6
CONTINUOUS
 62
     7
 10
3786.438619573955
 20
1289.73796303881
 30
0.0
 70
    32
  0
VERTEX
  5
3F8
  8
0
  6
CONTINUOUS
 62
     7
 10
3786.478718058362
 20
1289.73796303881
 30
0.0
 70
    32
  0
VERTEX
  5
3F9
  8
0
  6
CONTINUOUS
 62
     7
 10
3786.518699878005
 20
1289.73796303881
 30
0.0
 70
    32
  0
VERTEX
  5
3FA
  8
0
  6
CONTINUOUS
 62
     7
 10
3786.558548366489
 20
1289.73796303881
 30
0.0
 70
    32
  0
VERTEX
  5
3FB
  8
0
  6
CONTINUOUS
 62
     7
 10
3786.598246857418
 20
1289.73796303881
 30
0.0
 70
    32
  0
VERTEX
  5
3FC
  8
0
  6
CONTINUOUS
 62
     7
 10
3786.637778684401
 20
1289.73796303881
 30
0.0
 70
    32
  0
VERTEX
  5
3FD
  8
0
  6
CONTINUOUS
 62
     7
 10
3786.677127181041
 20
1289.73796303881
 30
0.0
 70
    32
  0
VERTEX
  5
3FE
  8
0
  6
CONTINUOUS
 62
     7
 10
3786.716275680943
 20
1289.73796303881
 30
0.0
 70
    32
  0
VERTEX
  5
3FF
  8
0
  6
CONTINUOUS
 62
     7
 10
3786.755207517713
 20
1289.73796303881
 30
0.0
 70
    32
  0
VERTEX
  5
400
  8
0
  6
CONTINUOUS
 62
     7
 10
3786.793906024955
 20
1289.73796303881
 30
0.0
 70
    32
  0
VERTEX
  5
401
  8
0
  6
CONTINUOUS
 62
     7
 10
3786.832354536275
 20
1289.73796303881
 30
0.0
 70
    32
  0
VERTEX
  5
402
  8
0
  6
CONTINUOUS
 62
     7
 10
3786.870536385277
 20
1289.73796303881
 30
0.0
 70
    32
  0
VERTEX
  5
403
  8
0
  6
CONTINUOUS
 62
     7
 10
3786.908434905568
 20
1289.73796303881
 30
0.0
 70
    32
  0
VERTEX
  5
404
  8
0
  6
CONTINUOUS
 62
     7
 10
3786.94603343051
 20
1289.73796303881
 30
0.0
 70
    32
  0
VERTEX
  5
405
  8
0
  6
CONTINUOUS
 62
     7
 10
3786.983315281004
 20
1289.73796303881
 30
0.0
 70
    32
  0
VERTEX
  5
406
  8
0
  6
CONTINUOUS
 62
     7
 10
3787.020263759746
 20
1289.73796303881
 30
0.0
 70
    32
  0
VERTEX
  5
407
  8
0
  6
CONTINUOUS
 62
     7
 10
3787.056862167989
 20
1289.73796303881
 30
0.0
 70
    32
  0
VERTEX
  5
408
  8
0
  6
CONTINUOUS
 62
     7
 10
3787.093093806985
 20
1289.73796303881
 30
0.0
 70
    32
  0
VERTEX
  5
409
  8
0
  6
CONTINUOUS
 62
     7
 10
3787.128941977984
 20
1289.73796303881
 30
0.0
 70
    32
  0
VERTEX
  5
40A
  8
0
  6
CONTINUOUS
 62
     7
 10
3787.164389982239
 20
1289.73796303881
 30
0.0
 70
    32
  0
VERTEX
  5
40B
  8
0
  6
CONTINUOUS
 62
     7
 10
3787.199421121004
 20
1289.73796303881
 30
0.0
 70
    32
  0
VERTEX
  5
40C
  8
0
  6
CONTINUOUS
 62
     7
 10
3787.234018695529
 20
1289.73796303881
 30
0.0
 70
    32
  0
VERTEX
  5
40D
  8
0
  6
CONTINUOUS
 62
     7
 10
3787.268166007068
 20
1289.73796303881
 30
0.0
 70
    32
  0
VERTEX
  5
40E
  8
0
  6
CONTINUOUS
 62
     7
 10
3787.301846389466
 20
1289.73796303881
 30
0.0
 70
    32
  0
VERTEX
  5
40F
  8
0
  6
CONTINUOUS
 62
     7
 10
3787.335048736009
 20
1289.73796303881
 30
0.0
 70
    32
  0
VERTEX
  5
410
  8
0
  6
CONTINUOUS
 62
     7
 10
3787.367773738167
 20
1289.73796303881
 30
0.0
 70
    32
  0
VERTEX
  5
411
  8
0
  6
CONTINUOUS
 62
     7
 10
3787.400023593945
 20
1289.73796303881
 30
0.0
 70
    32
  0
VERTEX
  5
412
  8
0
  6
CONTINUOUS
 62
     7
 10
3787.431800501348
 20
1289.73796303881
 30
0.0
 70
    32
  0
VERTEX
  5
413
  8
0
  6
CONTINUOUS
 62
     7
 10
3787.463106658384
 20
1289.73796303881
 30
0.0
 70
    32
  0
VERTEX
  5
414
  8
0
  6
CONTINUOUS
 62
     7
 10
3787.49394426306
 20
1289.73796303881
 30
0.0
 70
    32
  0
VERTEX
  5
415
  8
0
  6
CONTINUOUS
 62
     7
 10
3787.524315513378
 20
1289.73796303881
 30
0.0
 70
    32
  0
VERTEX
  5
416
  8
0
  6
CONTINUOUS
 62
     7
 10
3787.554222607348
 20
1289.73796303881
 30
0.0
 70
    32
  0
VERTEX
  5
417
  8
0
  6
CONTINUOUS
 62
     7
 10
3787.583667742973
 20
1289.73796303881
 30
0.0
 70
    32
  0
VERTEX
  5
418
  8
0
  6
CONTINUOUS
 62
     7
 10
3787.612653115071
 20
1289.73796303881
 30
0.0
 70
    32
  0
VERTEX
  5
419
  8
0
  6
CONTINUOUS
 62
     7
 10
3787.641168045391
 20
1289.73796303881
 30
0.0
 70
    32
  0
VERTEX
  5
41A
  8
0
  6
CONTINUOUS
 62
     7
 10
3787.669159700507
 20
1289.73796303881
 30
0.0
 70
    32
  0
VERTEX
  5
41B
  8
0
  6
CONTINUOUS
 62
     7
 10
3787.696566631532
 20
1289.73796303881
 30
0.0
 70
    32
  0
VERTEX
  5
41C
  8
0
  6
CONTINUOUS
 62
     7
 10
3787.72332738957
 20
1289.73796303881
 30
0.0
 70
    32
  0
VERTEX
  5
41D
  8
0
  6
CONTINUOUS
 62
     7
 10
3787.749380525733
 20
1289.73796303881
 30
0.0
 70
    32
  0
VERTEX
  5
41E
  8
0
  6
CONTINUOUS
 62
     7
 10
3787.774664591128
 20
1289.73796303881
 30
0.0
 70
    32
  0
VERTEX
  5
41F
  8
0
  6
CONTINUOUS
 62
     7
 10
3787.799118136863
 20
1289.73796303881
 30
0.0
 70
    32
  0
VERTEX
  5
420
  8
0
  6
CONTINUOUS
 62
     7
 10
3787.82267971405
 20
1289.73796303881
 30
0.0
 70
    32
  0
VERTEX
  5
421
  8
0
  6
CONTINUOUS
 62
     7
 10
3787.845287873795
 20
1289.73796303881
 30
0.0
 70
    32
  0
VERTEX
  5
422
  8
0
  6
CONTINUOUS
 62
     7
 10
3787.866881167207
 20
1289.73796303881
 30
0.0
 70
    32
  0
VERTEX
  5
423
  8
0
  6
CONTINUOUS
 62
     7
 10
3787.887427232255
 20
1289.73796303881
 30
0.0
 70
    32
  0
VERTEX
  5
424
  8
0
  6
CONTINUOUS
 62
     7
 10
3787.907037595327
 20
1289.73796303881
 30
0.0
 70
    32
  0
VERTEX
  5
425
  8
0
  6
CONTINUOUS
 62
     7
 10
3787.925868196122
 20
1289.73796303881
 30
0.0
 70
    32
  0
VERTEX
  5
426
  8
0
  6
CONTINUOUS
 62
     7
 10
3787.944074987091
 20
1289.73796303881
 30
0.0
 70
    32
  0
VERTEX
  5
427
  8
0
  6
CONTINUOUS
 62
     7
 10
3787.961813920693
 20
1289.73796303881
 30
0.0
 70
    32
  0
VERTEX
  5
428
  8
0
  6
CONTINUOUS
 62
     7
 10
3787.979240949384
 20
1289.73796303881
 30
0.0
 70
    32
  0
VERTEX
  5
429
  8
0
  6
CONTINUOUS
 62
     7
 10
3787.996512025618
 20
1289.73796303881
 30
0.0
 70
    32
  0
SEQEND
  5
67D
  8
0
  6
CONTINUOUS
 62
     7
  0
LINE
  5
135
  8
0
  6
CONTINUOUS
 62
     7
 10
3786.196512025602
 20
1288.737963038811
 30
0.0
 11
3786.196512025588
 21
1289.73796303881
 31
0.0
  0
POLYLINE
  5
136
  8
0
  6
CONTINUOUS
 62
     7
 66
     1
 10
0.0
 20
0.0
 30
0.0
  0
VERTEX
  5
42A
  8
0
  6
CONTINUOUS
 62
     7
 10
3787.996512025618
 20
1250.995464397125
 30
0.0
  0
VERTEX
  5
42B
  8
0
  6
CONTINUOUS
 62
     7
 10
3787.987647683358
 20
1251.004260879934
 30
0.0
  0
VERTEX
  5
42C
  8
0
  6
CONTINUOUS
 62
     7
 10
3787.978664364465
 20
1251.012906679324
 30
0.0
  0
VERTEX
  5
42D
  8
0
  6
CONTINUOUS
 62
     7
 10
3787.969471338864
 20
1251.02128643391
 30
0.0
  0
VERTEX
  5
42E
  8
0
  6
CONTINUOUS
 62
     7
 10
3787.960064686018
 20
1251.029393336761
 30
0.0
  0
VERTEX
  5
42F
  8
0
  6
CONTINUOUS
 62
     7
 10
3787.950457107192
 20
1251.037241366336
 30
0.0
  0
VERTEX
  5
430
  8
0
  6
CONTINUOUS
 62
     7
 10
3787.940661303646
 20
1251.044844501095
 30
0.0
  0
VERTEX
  5
431
  8
0
  6
CONTINUOUS
 62
     7
 10
3787.930689976645
 20
1251.052216719498
 30
0.0
  0
VERTEX
  5
432
  8
0
  6
CONTINUOUS
 62
     7
 10
3787.920555827452
 20
1251.059372000005
 30
0.0
  0
VERTEX
  5
433
  8
0
  6
CONTINUOUS
 62
     7
 10
3787.91027155733
 20
1251.066324321076
 30
0.0
  0
VERTEX
  5
434
  8
0
  6
CONTINUOUS
 62
     7
 10
3787.899849867544
 20
1251.07308766117
 30
0.0
  0
VERTEX
  5
435
  8
0
  6
CONTINUOUS
 62
     7
 10
3787.889303459353
 20
1251.079675998748
 30
0.0
  0
VERTEX
  5
436
  8
0
  6
CONTINUOUS
 62
     7
 10
3787.878645034023
 20
1251.086103312269
 30
0.0
  0
VERTEX
  5
437
  8
0
  6
CONTINUOUS
 62
     7
 10
3787.867887292817
 20
1251.092383580194
 30
0.0
  0
VERTEX
  5
438
  8
0
  6
CONTINUOUS
 62
     7
 10
3787.857042936997
 20
1251.098530780981
 30
0.0
  0
VERTEX
  5
439
  8
0
  6
CONTINUOUS
 62
     7
 10
3787.846124667828
 20
1251.104558893092
 30
0.0
  0
VERTEX
  5
43A
  8
0
  6
CONTINUOUS
 62
     7
 10
3787.835145186571
 20
1251.110481894986
 30
0.0
  0
VERTEX
  5
43B
  8
0
  6
CONTINUOUS
 62
     7
 10
3787.824115425678
 20
1251.116311622078
 30
0.0
  0
VERTEX
  5
43C
  8
0
  6
CONTINUOUS
 62
     7
 10
3787.813036648264
 20
1251.122048194691
 30
0.0
  0
VERTEX
  5
43D
  8
0
  6
CONTINUOUS
 62
     7
 10
3787.80190682999
 20
1251.127687750151
 30
0.0
  0
VERTEX
  5
43E
  8
0
  6
CONTINUOUS
 62
     7
 10
3787.79072394379
 20
1251.133226422489
 30
0.0
  0
VERTEX
  5
43F
  8
0
  6
CONTINUOUS
 62
     7
 10
3787.779485962601
 20
1251.138660345735
 30
0.0
  0
VERTEX
  5
440
  8
0
  6
CONTINUOUS
 62
     7
 10
3787.768190859359
 20
1251.14398565392
 30
0.0
  0
VERTEX
  5
441
  8
0
  6
CONTINUOUS
 62
     7
 10
3787.756836607003
 20
1251.149198481074
 30
0.0
  0
VERTEX
  5
442
  8
0
  6
CONTINUOUS
 62
     7
 10
3787.745421178467
 20
1251.154294961228
 30
0.0
  0
VERTEX
  5
443
  8
0
  6
CONTINUOUS
 62
     7
 10
3787.733942546689
 20
1251.159271228413
 30
0.0
  0
VERTEX
  5
444
  8
0
  6
CONTINUOUS
 62
     7
 10
3787.722398684606
 20
1251.164123416658
 30
0.0
  0
VERTEX
  5
445
  8
0
  6
CONTINUOUS
 62
     7
 10
3787.710787565154
 20
1251.168847659996
 30
0.0
  0
VERTEX
  5
446
  8
0
  6
CONTINUOUS
 62
     7
 10
3787.699107161269
 20
1251.173440092455
 30
0.0
  0
VERTEX
  5
447
  8
0
  6
CONTINUOUS
 62
     7
 10
3787.68735544589
 20
1251.177896848068
 30
0.0
  0
VERTEX
  5
448
  8
0
  6
CONTINUOUS
 62
     7
 10
3787.67553039195
 20
1251.182214060864
 30
0.0
  0
VERTEX
  5
449
  8
0
  6
CONTINUOUS
 62
     7
 10
3787.663629998831
 20
1251.186387859291
 30
0.0
  0
VERTEX
  5
44A
  8
0
  6
CONTINUOUS
 62
     7
 10
3787.651653651354
 20
1251.190414079284
 30
0.0
  0
VERTEX
  5
44B
  8
0
  6
CONTINUOUS
 62
     7
 10
3787.639602773501
 20
1251.19428812624
 30
0.0
  0
VERTEX
  5
44C
  8
0
  6
CONTINUOUS
 62
     7
 10
3787.627478952596
 20
1251.198005371071
 30
0.0
  0
VERTEX
  5
44D
  8
0
  6
CONTINUOUS
 62
     7
 10
3787.615283775966
 20
1251.201561184687
 30
0.0
  0
VERTEX
  5
44E
  8
0
  6
CONTINUOUS
 62
     7
 10
3787.603018830929
 20
1251.204950938
 30
0.0
  0
VERTEX
  5
44F
  8
0
  6
CONTINUOUS
 62
     7
 10
3787.590685704815
 20
1251.208170001922
 30
0.0
  0
VERTEX
  5
450
  8
0
  6
CONTINUOUS
 62
     7
 10
3787.578285984944
 20
1251.211213747364
 30
0.0
  0
VERTEX
  5
451
  8
0
  6
CONTINUOUS
 62
     7
 10
3787.565821258641
 20
1251.214077545236
 30
0.0
  0
VERTEX
  5
452
  8
0
  6
CONTINUOUS
 62
     7
 10
3787.55329311323
 20
1251.216756766451
 30
0.0
  0
VERTEX
  5
453
  8
0
  6
CONTINUOUS
 62
     7
 10
3787.540703136036
 20
1251.21924678192
 30
0.0
  0
VERTEX
  5
454
  8
0
  6
CONTINUOUS
 62
     7
 10
3787.528052914381
 20
1251.221542962554
 30
0.0
  0
VERTEX
  5
455
  8
0
  6
CONTINUOUS
 62
     7
 10
3787.515344035589
 20
1251.223640679265
 30
0.0
  0
VERTEX
  5
456
  8
0
  6
CONTINUOUS
 62
     7
 10
3787.502578353971
 20
1251.225537232163
 30
0.0
  0
VERTEX
  5
457
  8
0
  6
CONTINUOUS
 62
     7
 10
3787.489759539231
 20
1251.227243039143
 30
0.0
  0
VERTEX
  5
458
  8
0
  6
CONTINUOUS
 62
     7
 10
3787.476892016849
 20
1251.22877397923
 30
0.0
  0
VERTEX
  5
459
  8
0
  6
CONTINUOUS
 62
     7
 10
3787.463980214794
 20
1251.230145949413
 30
0.0
  0
VERTEX
  5
45A
  8
0
  6
CONTINUOUS
 62
     7
 10
3787.451028561032
 20
1251.231374846683
 30
0.0
  0
VERTEX
  5
45B
  8
0
  6
CONTINUOUS
 62
     7
 10
3787.438041483532
 20
1251.23247656803
 30
0.0
  0
VERTEX
  5
45C
  8
0
  6
CONTINUOUS
 62
     7
 10
3787.42502341026
 20
1251.233467010446
 30
0.0
  0
VERTEX
  5
45D
  8
0
  6
CONTINUOUS
 62
     7
 10
3787.411978769183
 20
1251.234362070918
 30
0.0
  0
VERTEX
  5
45E
  8
0
  6
CONTINUOUS
 62
     7
 10
3787.39891198827
 20
1251.23517764644
 30
0.0
  0
VERTEX
  5
45F
  8
0
  6
CONTINUOUS
 62
     7
 10
3787.385827495488
 20
1251.235929633999
 30
0.0
  0
VERTEX
  5
460
  8
0
  6
CONTINUOUS
 62
     7
 10
3787.372729718803
 20
1251.236633930588
 30
0.0
  0
VERTEX
  5
461
  8
0
  6
CONTINUOUS
 62
     7
 10
3787.359623086183
 20
1251.237306433196
 30
0.0
  0
VERTEX
  5
462
  8
0
  6
CONTINUOUS
 62
     7
 10
3787.346512025596
 20
1251.237963038814
 30
0.0
  0
SEQEND
  5
67E
  8
0
  6
CONTINUOUS
 62
     7
  0
LINE
  5
137
  8
0
  6
CONTINUOUS
 62
     7
 10
3786.196512025611
 20
1233.737963038807
 30
0.0
 11
3786.196512025611
 21
1242.846388881062
 31
0.0
  0
LINE
  5
138
  8
0
  6
CONTINUOUS
 62
     7
 10
3786.496512025602
 20
1251.237963038814
 30
0.0
 11
3787.346512025596
 21
1251.237963038814
 31
0.0
  0
LINE
  5
139
  8
0
  6
CONTINUOUS
 62
     7
 10
3785.996512025611
 20
1233.737963038807
 30
0.0
 11
3786.196512025611
 21
1233.737963038807
 31
0.0
  0
LINE
  5
13A
  8
0
  6
CONTINUOUS
 62
     7
 10
3785.996512025602
 20
1288.737963038811
 30
0.0
 11
3786.196512025602
 21
1288.737963038811
 31
0.0
  0
LINE
  5
13B
  8
0
  6
CONTINUOUS
 62
     7
 10
3786.196512025605
 20
1279.629537196562
 30
0.0
 11
3786.196512025602
 21
1288.737963038811
 31
0.0
  0
POLYLINE
  5
13C
  8
0
  6
CONTINUOUS
 62
     7
 66
     1
 10
0.0
 20
0.0
 30
0.0
  0
VERTEX
  5
463
  8
0
  6
CONTINUOUS
 62
     7
 10
3787.346512025607
 20
1271.237963038814
 30
0.0
  0
VERTEX
  5
464
  8
0
  6
CONTINUOUS
 62
     7
 10
3787.361784577784
 20
1271.238781010578
 30
0.0
  0
VERTEX
  5
465
  8
0
  6
CONTINUOUS
 62
     7
 10
3787.377050010199
 20
1271.23962252402
 30
0.0
  0
VERTEX
  5
466
  8
0
  6
CONTINUOUS
 62
     7
 10
3787.392301203094
 20
1271.240511120819
 30
0.0
  0
VERTEX
  5
467
  8
0
  6
CONTINUOUS
 62
     7
 10
3787.407531036707
 20
1271.241470342652
 30
0.0
  0
VERTEX
  5
468
  8
0
  6
CONTINUOUS
 62
     7
 10
3787.422732391281
 20
1271.242523731197
 30
0.0
  0
VERTEX
  5
469
  8
0
  6
CONTINUOUS
 62
     7
 10
3787.437898147053
 20
1271.243694828133
 30
0.0
  0
VERTEX
  5
46A
  8
0
  6
CONTINUOUS
 62
     7
 10
3787.453021184262
 20
1271.245007175137
 30
0.0
  0
VERTEX
  5
46B
  8
0
  6
CONTINUOUS
 62
     7
 10
3787.468094383149
 20
1271.246484313889
 30
0.0
  0
VERTEX
  5
46C
  8
0
  6
CONTINUOUS
 62
     7
 10
3787.483110623955
 20
1271.248149786065
 30
0.0
  0
VERTEX
  5
46D
  8
0
  6
CONTINUOUS
 62
     7
 10
3787.498062786915
 20
1271.250027133345
 30
0.0
  0
VERTEX
  5
46E
  8
0
  6
CONTINUOUS
 62
     7
 10
3787.512943752274
 20
1271.252139897406
 30
0.0
  0
VERTEX
  5
46F
  8
0
  6
CONTINUOUS
 62
     7
 10
3787.527746400455
 20
1271.254511619059
 30
0.0
  0
VERTEX
  5
470
  8
0
  6
CONTINUOUS
 62
     7
 10
3787.542464996785
 20
1271.257159366527
 30
0.0
  0
VERTEX
  5
471
  8
0
  6
CONTINUOUS
 62
     7
 10
3787.557098521344
 20
1271.260078172797
 30
0.0
  0
VERTEX
  5
472
  8
0
  6
CONTINUOUS
 62
     7
 10
3787.571646956618
 20
1271.26325838591
 30
0.0
  0
VERTEX
  5
473
  8
0
  6
CONTINUOUS
 62
     7
 10
3787.586110285095
 20
1271.266690353904
 30
0.0
  0
VERTEX
  5
474
  8
0
  6
CONTINUOUS
 62
     7
 10
3787.600488489269
 20
1271.270364424819
 30
0.0
  0
VERTEX
  5
475
  8
0
  6
CONTINUOUS
 62
     7
 10
3787.614781551625
 20
1271.274270946695
 30
0.0
  0
VERTEX
  5
476
  8
0
  6
CONTINUOUS
 62
     7
 10
3787.628989454654
 20
1271.278400267571
 30
0.0
  0
VERTEX
  5
477
  8
0
  6
CONTINUOUS
 62
     7
 10
3787.643112180843
 20
1271.282742735485
 30
0.0
  0
VERTEX
  5
478
  8
0
  6
CONTINUOUS
 62
     7
 10
3787.657149712682
 20
1271.287288698479
 30
0.0
  0
VERTEX
  5
479
  8
0
  6
CONTINUOUS
 62
     7
 10
3787.671102032663
 20
1271.292028504591
 30
0.0
  0
VERTEX
  5
47A
  8
0
  6
CONTINUOUS
 62
     7
 10
3787.68496912327
 20
1271.296952501861
 30
0.0
  0
VERTEX
  5
47B
  8
0
  6
CONTINUOUS
 62
     7
 10
3787.698750966994
 20
1271.302051038328
 30
0.0
  0
VERTEX
  5
47C
  8
0
  6
CONTINUOUS
 62
     7
 10
3787.712447170979
 20
1271.307315481887
 30
0.0
  0
VERTEX
  5
47D
  8
0
  6
CONTINUOUS
 62
     7
 10
3787.726053950223
 20
1271.312746417253
 30
0.0
  0
VERTEX
  5
47E
  8
0
  6
CONTINUOUS
 62
     7
 10
3787.739565718583
 20
1271.318349323037
 30
0.0
  0
VERTEX
  5
47F
  8
0
  6
CONTINUOUS
 62
     7
 10
3787.752976873325
 20
1271.324129722935
 30
0.0
  0
VERTEX
  5
480
  8
0
  6
CONTINUOUS
 62
     7
 10
3787.766281811713
 20
1271.330093140642
 30
0.0
  0
VERTEX
  5
481
  8
0
  6
CONTINUOUS
 62
     7
 10
3787.779474931011
 20
1271.336245099853
 30
0.0
  0
VERTEX
  5
482
  8
0
  6
CONTINUOUS
 62
     7
 10
3787.792550628486
 20
1271.342591124263
 30
0.0
  0
VERTEX
  5
483
  8
0
  6
CONTINUOUS
 62
     7
 10
3787.8055033014
 20
1271.349136737569
 30
0.0
  0
VERTEX
  5
484
  8
0
  6
CONTINUOUS
 62
     7
 10
3787.818327347019
 20
1271.355887463464
 30
0.0
  0
VERTEX
  5
485
  8
0
  6
CONTINUOUS
 62
     7
 10
3787.831017162607
 20
1271.362848825645
 30
0.0
  0
VERTEX
  5
486
  8
0
  6
CONTINUOUS
 62
     7
 10
3787.843567145429
 20
1271.370026347807
 30
0.0
  0
VERTEX
  5
487
  8
0
  6
CONTINUOUS
 62
     7
 10
3787.855971692749
 20
1271.377425553644
 30
0.0
  0
VERTEX
  5
488
  8
0
  6
CONTINUOUS
 62
     7
 10
3787.868226805933
 20
1271.385049809947
 30
0.0
  0
VERTEX
  5
489
  8
0
  6
CONTINUOUS
 62
     7
 10
3787.880340175242
 20
1271.392886766378
 30
0.0
  0
VERTEX
  5
48A
  8
0
  6
CONTINUOUS
 62
     7
 10
3787.892324665519
 20
1271.400917114747
 30
0.0
  0
VERTEX
  5
48B
  8
0
  6
CONTINUOUS
 62
     7
 10
3787.904193164668
 20
1271.409121515861
 30
0.0
  0
VERTEX
  5
48C
  8
0
  6
CONTINUOUS
 62
     7
 10
3787.915958560592
 20
1271.417480630527
 30
0.0
  0
VERTEX
  5
48D
  8
0
  6
CONTINUOUS
 62
     7
 10
3787.927633741195
 20
1271.42597511955
 30
0.0
  0
VERTEX
  5
48E
  8
0
  6
CONTINUOUS
 62
     7
 10
3787.939231594377
 20
1271.434585643737
 30
0.0
  0
VERTEX
  5
48F
  8
0
  6
CONTINUOUS
 62
     7
 10
3787.950765008045
 20
1271.443292863893
 30
0.0
  0
VERTEX
  5
490
  8
0
  6
CONTINUOUS
 62
     7
 10
3787.962246870099
 20
1271.452077440825
 30
0.0
  0
VERTEX
  5
491
  8
0
  6
CONTINUOUS
 62
     7
 10
3787.973690068444
 20
1271.460920035339
 30
0.0
  0
VERTEX
  5
492
  8
0
  6
CONTINUOUS
 62
     7
 10
3787.985107490983
 20
1271.46980130824
 30
0.0
  0
VERTEX
  5
493
  8
0
  6
CONTINUOUS
 62
     7
 10
3787.996512025618
 20
1271.478701920336
 30
0.0
  0
SEQEND
  5
67F
  8
0
  6
CONTINUOUS
 62
     7
  0
LINE
  5
13D
  8
0
  6
CONTINUOUS
 62
     7
 10
3787.346512025607
 20
1271.237963038814
 30
0.0
 11
3786.496512025602
 21
1271.237963038811
 31
0.0
  0
LINE
  5
13E
  8
0
  6
CONTINUOUS
 62
     7
 10
3785.996512025612
 20
1232.737963038807
 30
0.0
 11
3786.196512025612
 21
1232.737963038807
 31
0.0
  0
LINE
  5
13F
  8
0
  6
CONTINUOUS
 62
     7
 10
3785.996512025588
 20
1289.73796303881
 30
0.0
 11
3786.196512025588
 21
1289.73796303881
 31
0.0
  0
LINE
  5
140
  8
0
  6
CONTINUOUS
 62
     7
 10
3786.496512025612
 20
1688.282004899754
 30
0.0
 11
3785.996512025621
 21
1688.282004899754
 31
0.0
  0
LINE
  5
141
  8
0
  6
CONTINUOUS
 62
     7
 10
3786.496512025612
 20
1689.837963039047
 30
0.0
 11
3785.996512025612
 21
1689.837963039047
 31
0.0
  0
LINE
  5
142
  8
0
  6
CONTINUOUS
 62
     7
 10
3786.496512025612
 20
1689.837963039047
 30
0.0
 11
3786.496512025612
 21
1688.282004899754
 31
0.0
  0
LINE
  5
143
  8
0
  6
CONTINUOUS
 62
     7
 10
3785.996512025622
 20
1706.193921177883
 30
0.0
 11
3786.496512025606
 21
1706.193921177882
 31
0.0
  0
LINE
  5
144
  8
0
  6
CONTINUOUS
 62
     7
 10
3786.496512025606
 20
1706.193921177882
 30
0.0
 11
3786.496512025597
 21
1704.637963038596
 31
0.0
  0
LINE
  5
145
  8
0
  6
CONTINUOUS
 62
     7
 10
3785.996512025597
 20
1704.637963038596
 30
0.0
 11
3786.496512025597
 21
1704.637963038596
 31
0.0
  0
LINE
  5
146
  8
0
  6
CONTINUOUS
 62
     7
 10
3786.196512025611
 20
1678.846388881062
 30
0.0
 11
3786.496512025611
 21
1678.846388881062
 31
0.0
  0
LINE
  5
147
  8
0
  6
CONTINUOUS
 62
     7
 10
3785.996512025611
 20
1678.846388881062
 30
0.0
 11
3786.196512025611
 21
1678.846388881062
 31
0.0
  0
LINE
  5
148
  8
0
  6
CONTINUOUS
 62
     7
 10
3786.496512025611
 20
1678.846388881062
 30
0.0
 11
3786.496512025612
 21
1688.282004899754
 31
0.0
  0
LINE
  5
149
  8
0
  6
CONTINUOUS
 62
     7
 10
3786.196512025605
 20
1715.629537196562
 30
0.0
 11
3785.996512025605
 21
1715.629537196562
 31
0.0
  0
LINE
  5
14A
  8
0
  6
CONTINUOUS
 62
     7
 10
3786.496512025605
 20
1715.629537196562
 30
0.0
 11
3786.196512025605
 21
1715.629537196562
 31
0.0
  0
LINE
  5
14B
  8
0
  6
CONTINUOUS
 62
     7
 10
3786.496512025606
 20
1706.193921177882
 30
0.0
 11
3786.496512025605
 21
1715.629537196562
 31
0.0
  0
POLYLINE
  5
14C
  8
0
  6
CONTINUOUS
 62
     7
 10
0.0
 20
0.0
 30
0.0
 66
     1
 70
     8
  0
VERTEX
  5
494
  8
0
  6
CONTINUOUS
 62
     7
 10
3787.996512025618
 20
1668.737963038813
 30
0.0
 70
    32
  0
VERTEX
  5
495
  8
0
  6
CONTINUOUS
 62
     7
 10
3787.979243200239
 20
1668.737963038812
 30
0.0
 70
    32
  0
VERTEX
  5
496
  8
0
  6
CONTINUOUS
 62
     7
 10
3787.961818116767
 20
1668.737963038812
 30
0.0
 70
    32
  0
VERTEX
  5
497
  8
0
  6
CONTINUOUS
 62
     7
 10
3787.944080517115
 20
1668.737963038813
 30
0.0
 70
    32
  0
VERTEX
  5
498
  8
0
  6
CONTINUOUS
 62
     7
 10
3787.925874143186
 20
1668.737963038813
 30
0.0
 70
    32
  0
VERTEX
  5
499
  8
0
  6
CONTINUOUS
 62
     7
 10
3787.907042736894
 20
1668.737963038813
 30
0.0
 70
    32
  0
VERTEX
  5
49A
  8
0
  6
CONTINUOUS
 62
     7
 10
3787.887430040144
 20
1668.737963038813
 30
0.0
 70
    32
  0
VERTEX
  5
49B
  8
0
  6
CONTINUOUS
 62
     7
 10
3787.866879816855
 20
1668.737963038813
 30
0.0
 70
    32
  0
VERTEX
  5
49C
  8
0
  6
CONTINUOUS
 62
     7
 10
3787.845282029237
 20
1668.737963038813
 30
0.0
 70
    32
  0
VERTEX
  5
49D
  8
0
  6
CONTINUOUS
 62
     7
 10
3787.822670233916
 20
1668.737963038813
 30
0.0
 70
    32
  0
VERTEX
  5
49E
  8
0
  6
CONTINUOUS
 62
     7
 10
3787.799105805135
 20
1668.737963038813
 30
0.0
 70
    32
  0
VERTEX
  5
49F
  8
0
  6
CONTINUOUS
 62
     7
 10
3787.774650117134
 20
1668.737963038813
 30
0.0
 70
    32
  0
VERTEX
  5
4A0
  8
0
  6
CONTINUOUS
 62
     7
 10
3787.749364544157
 20
1668.737963038813
 30
0.0
 70
    32
  0
VERTEX
  5
4A1
  8
0
  6
CONTINUOUS
 62
     7
 10
3787.723310460442
 20
1668.737963038813
 30
0.0
 70
    32
  0
VERTEX
  5
4A2
  8
0
  6
CONTINUOUS
 62
     7
 10
3787.696549240231
 20
1668.737963038813
 30
0.0
 70
    32
  0
VERTEX
  5
4A3
  8
0
  6
CONTINUOUS
 62
     7
 10
3787.669142257767
 20
1668.737963038813
 30
0.0
 70
    32
  0
VERTEX
  5
4A4
  8
0
  6
CONTINUOUS
 62
     7
 10
3787.64115088729
 20
1668.737963038813
 30
0.0
 70
    32
  0
VERTEX
  5
4A5
  8
0
  6
CONTINUOUS
 62
     7
 10
3787.612636503043
 20
1668.737963038813
 30
0.0
 70
    32
  0
VERTEX
  5
4A6
  8
0
  6
CONTINUOUS
 62
     7
 10
3787.583651852189
 20
1668.737963038812
 30
0.0
 70
    32
  0
VERTEX
  5
4A7
  8
0
  6
CONTINUOUS
 62
     7
 10
3787.554207543309
 20
1668.737963038813
 30
0.0
 70
    32
  0
VERTEX
  5
4A8
  8
0
  6
CONTINUOUS
 62
     7
 10
3787.524301338899
 20
1668.737963038812
 30
0.0
 70
    32
  0
VERTEX
  5
4A9
  8
0
  6
CONTINUOUS
 62
     7
 10
3787.493930998353
 20
1668.737963038813
 30
0.0
 70
    32
  0
VERTEX
  5
4AA
  8
0
  6
CONTINUOUS
 62
     7
 10
3787.46309428106
 20
1668.737963038813
 30
0.0
 70
    32
  0
VERTEX
  5
4AB
  8
0
  6
CONTINUOUS
 62
     7
 10
3787.431788946412
 20
1668.737963038813
 30
0.0
 70
    32
  0
VERTEX
  5
4AC
  8
0
  6
CONTINUOUS
 62
     7
 10
3787.4000127538
 20
1668.737963038813
 30
0.0
 70
    32
  0
VERTEX
  5
4AD
  8
0
  6
CONTINUOUS
 62
     7
 10
3787.367763462616
 20
1668.737963038813
 30
0.0
 70
    32
  0
VERTEX
  5
4AE
  8
0
  6
CONTINUOUS
 62
     7
 10
3787.335038832251
 20
1668.737963038813
 30
0.0
 70
    32
  0
VERTEX
  5
4AF
  8
0
  6
CONTINUOUS
 62
     7
 10
3787.301836622096
 20
1668.737963038813
 30
0.0
 70
    32
  0
VERTEX
  5
4B0
  8
0
  6
CONTINUOUS
 62
     7
 10
3787.268156183287
 20
1668.737963038813
 30
0.0
 70
    32
  0
VERTEX
  5
4B1
  8
0
  6
CONTINUOUS
 62
     7
 10
3787.234008789963
 20
1668.737963038813
 30
0.0
 70
    32
  0
VERTEX
  5
4B2
  8
0
  6
CONTINUOUS
 62
     7
 10
3787.199411123053
 20
1668.737963038813
 30
0.0
 70
    32
  0
VERTEX
  5
4B3
  8
0
  6
CONTINUOUS
 62
     7
 10
3787.164379890363
 20
1668.737963038813
 30
0.0
 70
    32
  0
VERTEX
  5
4B4
  8
0
  6
CONTINUOUS
 62
     7
 10
3787.128931799702
 20
1668.737963038813
 30
0.0
 70
    32
  0
VERTEX
  5
4B5
  8
0
  6
CONTINUOUS
 62
     7
 10
3787.093083558875
 20
1668.737963038813
 30
0.0
 70
    32
  0
VERTEX
  5
4B6
  8
0
  6
CONTINUOUS
 62
     7
 10
3787.056851875693
 20
1668.737963038813
 30
0.0
 70
    32
  0
VERTEX
  5
4B7
  8
0
  6
CONTINUOUS
 62
     7
 10
3787.020253457962
 20
1668.737963038813
 30
0.0
 70
    32
  0
VERTEX
  5
4B8
  8
0
  6
CONTINUOUS
 62
     7
 10
3786.98330501349
 20
1668.737963038813
 30
0.0
 70
    32
  0
VERTEX
  5
4B9
  8
0
  6
CONTINUOUS
 62
     7
 10
3786.946023250086
 20
1668.737963038813
 30
0.0
 70
    32
  0
VERTEX
  5
4BA
  8
0
  6
CONTINUOUS
 62
     7
 10
3786.908424873548
 20
1668.737963038813
 30
0.0
 70
    32
  0
VERTEX
  5
4BB
  8
0
  6
CONTINUOUS
 62
     7
 10
3786.870526564407
 20
1668.737963038813
 30
0.0
 70
    32
  0
VERTEX
  5
4BC
  8
0
  6
CONTINUOUS
 62
     7
 10
3786.832344985899
 20
1668.737963038812
 30
0.0
 70
    32
  0
VERTEX
  5
4BD
  8
0
  6
CONTINUOUS
 62
     7
 10
3786.793896800929
 20
1668.737963038812
 30
0.0
 70
    32
  0
VERTEX
  5
4BE
  8
0
  6
CONTINUOUS
 62
     7
 10
3786.755198672402
 20
1668.737963038812
 30
0.0
 70
    32
  0
VERTEX
  5
4BF
  8
0
  6
CONTINUOUS
 62
     7
 10
3786.716267263222
 20
1668.737963038812
 30
0.0
 70
    32
  0
VERTEX
  5
4C0
  8
0
  6
CONTINUOUS
 62
     7
 10
3786.677119236291
 20
1668.737963038812
 30
0.0
 70
    32
  0
VERTEX
  5
4C1
  8
0
  6
CONTINUOUS
 62
     7
 10
3786.637771254514
 20
1668.737963038812
 30
0.0
 70
    32
  0
VERTEX
  5
4C2
  8
0
  6
CONTINUOUS
 62
     7
 10
3786.598239980793
 20
1668.737963038811
 30
0.0
 70
    32
  0
VERTEX
  5
4C3
  8
0
  6
CONTINUOUS
 62
     7
 10
3786.558542078034
 20
1668.737963038811
 30
0.0
 70
    32
  0
VERTEX
  5
4C4
  8
0
  6
CONTINUOUS
 62
     7
 10
3786.518694209143
 20
1668.737963038811
 30
0.0
 70
    32
  0
VERTEX
  5
4C5
  8
0
  6
CONTINUOUS
 62
     7
 10
3786.478713037018
 20
1668.73796303881
 30
0.0
 70
    32
  0
VERTEX
  5
4C6
  8
0
  6
CONTINUOUS
 62
     7
 10
3786.438615224567
 20
1668.73796303881
 30
0.0
 70
    32
  0
VERTEX
  5
4C7
  8
0
  6
CONTINUOUS
 62
     7
 10
3786.398417434693
 20
1668.737963038809
 30
0.0
 70
    32
  0
VERTEX
  5
4C8
  8
0
  6
CONTINUOUS
 62
     7
 10
3786.3581363303
 20
1668.737963038809
 30
0.0
 70
    32
  0
VERTEX
  5
4C9
  8
0
  6
CONTINUOUS
 62
     7
 10
3786.317788574292
 20
1668.737963038809
 30
0.0
 70
    32
  0
VERTEX
  5
4CA
  8
0
  6
CONTINUOUS
 62
     7
 10
3786.277390829572
 20
1668.737963038808
 30
0.0
 70
    32
  0
VERTEX
  5
4CB
  8
0
  6
CONTINUOUS
 62
     7
 10
3786.236959759044
 20
1668.737963038808
 30
0.0
 70
    32
  0
VERTEX
  5
4CC
  8
0
  6
CONTINUOUS
 62
     7
 10
3786.196512025612
 20
1668.737963038807
 30
0.0
 70
    32
  0
SEQEND
  5
680
  8
0
  6
CONTINUOUS
 62
     7
  0
LINE
  5
14D
  8
0
  6
CONTINUOUS
 62
     7
 10
3786.196512025611
 20
1669.737963038807
 30
0.0
 11
3786.196512025612
 21
1668.737963038807
 31
0.0
  0
POLYLINE
  5
14E
  8
0
  6
CONTINUOUS
 62
     7
 10
0.0
 20
0.0
 30
0.0
 66
     1
 70
     8
  0
VERTEX
  5
4CD
  8
0
  6
CONTINUOUS
 62
     7
 10
3786.196512025588
 20
1725.73796303881
 30
0.0
 70
    32
  0
VERTEX
  5
4CE
  8
0
  6
CONTINUOUS
 62
     7
 10
3786.236960504285
 20
1725.73796303881
 30
0.0
 70
    32
  0
VERTEX
  5
4CF
  8
0
  6
CONTINUOUS
 62
     7
 10
3786.277392316588
 20
1725.73796303881
 30
0.0
 70
    32
  0
VERTEX
  5
4D0
  8
0
  6
CONTINUOUS
 62
     7
 10
3786.317790796102
 20
1725.73796303881
 30
0.0
 70
    32
  0
VERTEX
  5
4D1
  8
0
  6
CONTINUOUS
 62
     7
 10
3786.35813927643
 20
1725.73796303881
 30
0.0
 70
    32
  0
VERTEX
  5
4D2
  8
0
  6
CONTINUOUS
 62
     7
 10
3786.398421091181
 20
1725.737963038811
 30
0.0
 70
    32
  0
VERTEX
  5
4D3
  8
0
  6
CONTINUOUS
 62
     7
 10
3786.438619573954
 20
1725.73796303881
 30
0.0
 70
    32
  0
VERTEX
  5
4D4
  8
0
  6
CONTINUOUS
 62
     7
 10
3786.478718058362
 20
1725.73796303881
 30
0.0
 70
    32
  0
VERTEX
  5
4D5
  8
0
  6
CONTINUOUS
 62
     7
 10
3786.518699878004
 20
1725.73796303881
 30
0.0
 70
    32
  0
VERTEX
  5
4D6
  8
0
  6
CONTINUOUS
 62
     7
 10
3786.558548366488
 20
1725.73796303881
 30
0.0
 70
    32
  0
VERTEX
  5
4D7
  8
0
  6
CONTINUOUS
 62
     7
 10
3786.598246857418
 20
1725.73796303881
 30
0.0
 70
    32
  0
VERTEX
  5
4D8
  8
0
  6
CONTINUOUS
 62
     7
 10
3786.637778684402
 20
1725.73796303881
 30
0.0
 70
    32
  0
VERTEX
  5
4D9
  8
0
  6
CONTINUOUS
 62
     7
 10
3786.677127181041
 20
1725.73796303881
 30
0.0
 70
    32
  0
VERTEX
  5
4DA
  8
0
  6
CONTINUOUS
 62
     7
 10
3786.716275680943
 20
1725.73796303881
 30
0.0
 70
    32
  0
VERTEX
  5
4DB
  8
0
  6
CONTINUOUS
 62
     7
 10
3786.755207517713
 20
1725.73796303881
 30
0.0
 70
    32
  0
VERTEX
  5
4DC
  8
0
  6
CONTINUOUS
 62
     7
 10
3786.793906024955
 20
1725.73796303881
 30
0.0
 70
    32
  0
VERTEX
  5
4DD
  8
0
  6
CONTINUOUS
 62
     7
 10
3786.832354536275
 20
1725.73796303881
 30
0.0
 70
    32
  0
VERTEX
  5
4DE
  8
0
  6
CONTINUOUS
 62
     7
 10
3786.870536385277
 20
1725.73796303881
 30
0.0
 70
    32
  0
VERTEX
  5
4DF
  8
0
  6
CONTINUOUS
 62
     7
 10
3786.908434905568
 20
1725.73796303881
 30
0.0
 70
    32
  0
VERTEX
  5
4E0
  8
0
  6
CONTINUOUS
 62
     7
 10
3786.94603343051
 20
1725.73796303881
 30
0.0
 70
    32
  0
VERTEX
  5
4E1
  8
0
  6
CONTINUOUS
 62
     7
 10
3786.983315281004
 20
1725.73796303881
 30
0.0
 70
    32
  0
VERTEX
  5
4E2
  8
0
  6
CONTINUOUS
 62
     7
 10
3787.020263759747
 20
1725.73796303881
 30
0.0
 70
    32
  0
VERTEX
  5
4E3
  8
0
  6
CONTINUOUS
 62
     7
 10
3787.056862167989
 20
1725.73796303881
 30
0.0
 70
    32
  0
VERTEX
  5
4E4
  8
0
  6
CONTINUOUS
 62
     7
 10
3787.093093806985
 20
1725.73796303881
 30
0.0
 70
    32
  0
VERTEX
  5
4E5
  8
0
  6
CONTINUOUS
 62
     7
 10
3787.128941977984
 20
1725.73796303881
 30
0.0
 70
    32
  0
VERTEX
  5
4E6
  8
0
  6
CONTINUOUS
 62
     7
 10
3787.16438998224
 20
1725.73796303881
 30
0.0
 70
    32
  0
VERTEX
  5
4E7
  8
0
  6
CONTINUOUS
 62
     7
 10
3787.199421121004
 20
1725.73796303881
 30
0.0
 70
    32
  0
VERTEX
  5
4E8
  8
0
  6
CONTINUOUS
 62
     7
 10
3787.234018695529
 20
1725.73796303881
 30
0.0
 70
    32
  0
VERTEX
  5
4E9
  8
0
  6
CONTINUOUS
 62
     7
 10
3787.268166007068
 20
1725.73796303881
 30
0.0
 70
    32
  0
VERTEX
  5
4EA
  8
0
  6
CONTINUOUS
 62
     7
 10
3787.301846389466
 20
1725.73796303881
 30
0.0
 70
    32
  0
VERTEX
  5
4EB
  8
0
  6
CONTINUOUS
 62
     7
 10
3787.335048736009
 20
1725.73796303881
 30
0.0
 70
    32
  0
VERTEX
  5
4EC
  8
0
  6
CONTINUOUS
 62
     7
 10
3787.367773738166
 20
1725.73796303881
 30
0.0
 70
    32
  0
VERTEX
  5
4ED
  8
0
  6
CONTINUOUS
 62
     7
 10
3787.400023593945
 20
1725.73796303881
 30
0.0
 70
    32
  0
VERTEX
  5
4EE
  8
0
  6
CONTINUOUS
 62
     7
 10
3787.431800501348
 20
1725.73796303881
 30
0.0
 70
    32
  0
VERTEX
  5
4EF
  8
0
  6
CONTINUOUS
 62
     7
 10
3787.463106658385
 20
1725.73796303881
 30
0.0
 70
    32
  0
VERTEX
  5
4F0
  8
0
  6
CONTINUOUS
 62
     7
 10
3787.49394426306
 20
1725.73796303881
 30
0.0
 70
    32
  0
VERTEX
  5
4F1
  8
0
  6
CONTINUOUS
 62
     7
 10
3787.524315513379
 20
1725.73796303881
 30
0.0
 70
    32
  0
VERTEX
  5
4F2
  8
0
  6
CONTINUOUS
 62
     7
 10
3787.554222607348
 20
1725.73796303881
 30
0.0
 70
    32
  0
VERTEX
  5
4F3
  8
0
  6
CONTINUOUS
 62
     7
 10
3787.583667742973
 20
1725.73796303881
 30
0.0
 70
    32
  0
VERTEX
  5
4F4
  8
0
  6
CONTINUOUS
 62
     7
 10
3787.612653115071
 20
1725.73796303881
 30
0.0
 70
    32
  0
VERTEX
  5
4F5
  8
0
  6
CONTINUOUS
 62
     7
 10
3787.64116804539
 20
1725.73796303881
 30
0.0
 70
    32
  0
VERTEX
  5
4F6
  8
0
  6
CONTINUOUS
 62
     7
 10
3787.669159700508
 20
1725.73796303881
 30
0.0
 70
    32
  0
VERTEX
  5
4F7
  8
0
  6
CONTINUOUS
 62
     7
 10
3787.696566631531
 20
1725.73796303881
 30
0.0
 70
    32
  0
VERTEX
  5
4F8
  8
0
  6
CONTINUOUS
 62
     7
 10
3787.72332738957
 20
1725.73796303881
 30
0.0
 70
    32
  0
VERTEX
  5
4F9
  8
0
  6
CONTINUOUS
 62
     7
 10
3787.749380525733
 20
1725.73796303881
 30
0.0
 70
    32
  0
VERTEX
  5
4FA
  8
0
  6
CONTINUOUS
 62
     7
 10
3787.774664591128
 20
1725.73796303881
 30
0.0
 70
    32
  0
VERTEX
  5
4FB
  8
0
  6
CONTINUOUS
 62
     7
 10
3787.799118136864
 20
1725.73796303881
 30
0.0
 70
    32
  0
VERTEX
  5
4FC
  8
0
  6
CONTINUOUS
 62
     7
 10
3787.82267971405
 20
1725.73796303881
 30
0.0
 70
    32
  0
VERTEX
  5
4FD
  8
0
  6
CONTINUOUS
 62
     7
 10
3787.845287873794
 20
1725.73796303881
 30
0.0
 70
    32
  0
VERTEX
  5
4FE
  8
0
  6
CONTINUOUS
 62
     7
 10
3787.866881167207
 20
1725.73796303881
 30
0.0
 70
    32
  0
VERTEX
  5
4FF
  8
0
  6
CONTINUOUS
 62
     7
 10
3787.887427232256
 20
1725.73796303881
 30
0.0
 70
    32
  0
VERTEX
  5
500
  8
0
  6
CONTINUOUS
 62
     7
 10
3787.907037595328
 20
1725.73796303881
 30
0.0
 70
    32
  0
VERTEX
  5
501
  8
0
  6
CONTINUOUS
 62
     7
 10
3787.925868196121
 20
1725.73796303881
 30
0.0
 70
    32
  0
VERTEX
  5
502
  8
0
  6
CONTINUOUS
 62
     7
 10
3787.944074987091
 20
1725.73796303881
 30
0.0
 70
    32
  0
VERTEX
  5
503
  8
0
  6
CONTINUOUS
 62
     7
 10
3787.961813920693
 20
1725.73796303881
 30
0.0
 70
    32
  0
VERTEX
  5
504
  8
0
  6
CONTINUOUS
 62
     7
 10
3787.979240949384
 20
1725.73796303881
 30
0.0
 70
    32
  0
VERTEX
  5
505
  8
0
  6
CONTINUOUS
 62
     7
 10
3787.996512025618
 20
1725.73796303881
 30
0.0
 70
    32
  0
SEQEND
  5
681
  8
0
  6
CONTINUOUS
 62
     7
  0
LINE
  5
14F
  8
0
  6
CONTINUOUS
 62
     7
 10
3786.196512025602
 20
1724.737963038811
 30
0.0
 11
3786.196512025588
 21
1725.73796303881
 31
0.0
  0
POLYLINE
  5
150
  8
0
  6
CONTINUOUS
 62
     7
 66
     1
 10
0.0
 20
0.0
 30
0.0
  0
VERTEX
  5
506
  8
0
  6
CONTINUOUS
 62
     7
 10
3787.996512025618
 20
1686.995464397126
 30
0.0
  0
VERTEX
  5
507
  8
0
  6
CONTINUOUS
 62
     7
 10
3787.987647683358
 20
1687.004260879934
 30
0.0
  0
VERTEX
  5
508
  8
0
  6
CONTINUOUS
 62
     7
 10
3787.978664364465
 20
1687.012906679324
 30
0.0
  0
VERTEX
  5
509
  8
0
  6
CONTINUOUS
 62
     7
 10
3787.969471338864
 20
1687.02128643391
 30
0.0
  0
VERTEX
  5
50A
  8
0
  6
CONTINUOUS
 62
     7
 10
3787.960064686019
 20
1687.029393336762
 30
0.0
  0
VERTEX
  5
50B
  8
0
  6
CONTINUOUS
 62
     7
 10
3787.950457107191
 20
1687.037241366336
 30
0.0
  0
VERTEX
  5
50C
  8
0
  6
CONTINUOUS
 62
     7
 10
3787.940661303645
 20
1687.044844501096
 30
0.0
  0
VERTEX
  5
50D
  8
0
  6
CONTINUOUS
 62
     7
 10
3787.930689976646
 20
1687.052216719499
 30
0.0
  0
VERTEX
  5
50E
  8
0
  6
CONTINUOUS
 62
     7
 10
3787.920555827451
 20
1687.059372000005
 30
0.0
  0
VERTEX
  5
50F
  8
0
  6
CONTINUOUS
 62
     7
 10
3787.91027155733
 20
1687.066324321076
 30
0.0
  0
VERTEX
  5
510
  8
0
  6
CONTINUOUS
 62
     7
 10
3787.899849867542
 20
1687.07308766117
 30
0.0
  0
VERTEX
  5
511
  8
0
  6
CONTINUOUS
 62
     7
 10
3787.889303459353
 20
1687.079675998748
 30
0.0
  0
VERTEX
  5
512
  8
0
  6
CONTINUOUS
 62
     7
 10
3787.878645034022
 20
1687.086103312269
 30
0.0
  0
VERTEX
  5
513
  8
0
  6
CONTINUOUS
 62
     7
 10
3787.867887292817
 20
1687.092383580194
 30
0.0
  0
VERTEX
  5
514
  8
0
  6
CONTINUOUS
 62
     7
 10
3787.857042936997
 20
1687.098530780981
 30
0.0
  0
VERTEX
  5
515
  8
0
  6
CONTINUOUS
 62
     7
 10
3787.846124667828
 20
1687.104558893093
 30
0.0
  0
VERTEX
  5
516
  8
0
  6
CONTINUOUS
 62
     7
 10
3787.835145186571
 20
1687.110481894986
 30
0.0
  0
VERTEX
  5
517
  8
0
  6
CONTINUOUS
 62
     7
 10
3787.824115425677
 20
1687.116311622079
 30
0.0
  0
VERTEX
  5
518
  8
0
  6
CONTINUOUS
 62
     7
 10
3787.813036648264
 20
1687.122048194691
 30
0.0
  0
VERTEX
  5
519
  8
0
  6
CONTINUOUS
 62
     7
 10
3787.80190682999
 20
1687.127687750152
 30
0.0
  0
VERTEX
  5
51A
  8
0
  6
CONTINUOUS
 62
     7
 10
3787.79072394379
 20
1687.133226422489
 30
0.0
  0
VERTEX
  5
51B
  8
0
  6
CONTINUOUS
 62
     7
 10
3787.7794859626
 20
1687.138660345735
 30
0.0
  0
VERTEX
  5
51C
  8
0
  6
CONTINUOUS
 62
     7
 10
3787.768190859359
 20
1687.143985653919
 30
0.0
  0
VERTEX
  5
51D
  8
0
  6
CONTINUOUS
 62
     7
 10
3787.756836607003
 20
1687.149198481074
 30
0.0
  0
VERTEX
  5
51E
  8
0
  6
CONTINUOUS
 62
     7
 10
3787.745421178467
 20
1687.154294961228
 30
0.0
  0
VERTEX
  5
51F
  8
0
  6
CONTINUOUS
 62
     7
 10
3787.733942546689
 20
1687.159271228413
 30
0.0
  0
VERTEX
  5
520
  8
0
  6
CONTINUOUS
 62
     7
 10
3787.722398684605
 20
1687.164123416658
 30
0.0
  0
VERTEX
  5
521
  8
0
  6
CONTINUOUS
 62
     7
 10
3787.710787565154
 20
1687.168847659995
 30
0.0
  0
VERTEX
  5
522
  8
0
  6
CONTINUOUS
 62
     7
 10
3787.699107161269
 20
1687.173440092456
 30
0.0
  0
VERTEX
  5
523
  8
0
  6
CONTINUOUS
 62
     7
 10
3787.687355445889
 20
1687.177896848068
 30
0.0
  0
VERTEX
  5
524
  8
0
  6
CONTINUOUS
 62
     7
 10
3787.67553039195
 20
1687.182214060864
 30
0.0
  0
VERTEX
  5
525
  8
0
  6
CONTINUOUS
 62
     7
 10
3787.663629998831
 20
1687.186387859291
 30
0.0
  0
VERTEX
  5
526
  8
0
  6
CONTINUOUS
 62
     7
 10
3787.651653651353
 20
1687.190414079284
 30
0.0
  0
VERTEX
  5
527
  8
0
  6
CONTINUOUS
 62
     7
 10
3787.6396027735
 20
1687.19428812624
 30
0.0
  0
VERTEX
  5
528
  8
0
  6
CONTINUOUS
 62
     7
 10
3787.627478952596
 20
1687.198005371071
 30
0.0
  0
VERTEX
  5
529
  8
0
  6
CONTINUOUS
 62
     7
 10
3787.615283775965
 20
1687.201561184687
 30
0.0
  0
VERTEX
  5
52A
  8
0
  6
CONTINUOUS
 62
     7
 10
3787.60301883093
 20
1687.204950938001
 30
0.0
  0
VERTEX
  5
52B
  8
0
  6
CONTINUOUS
 62
     7
 10
3787.590685704814
 20
1687.208170001922
 30
0.0
  0
VERTEX
  5
52C
  8
0
  6
CONTINUOUS
 62
     7
 10
3787.578285984944
 20
1687.211213747364
 30
0.0
  0
VERTEX
  5
52D
  8
0
  6
CONTINUOUS
 62
     7
 10
3787.565821258641
 20
1687.214077545237
 30
0.0
  0
VERTEX
  5
52E
  8
0
  6
CONTINUOUS
 62
     7
 10
3787.553293113231
 20
1687.216756766451
 30
0.0
  0
VERTEX
  5
52F
  8
0
  6
CONTINUOUS
 62
     7
 10
3787.540703136036
 20
1687.219246781921
 30
0.0
  0
VERTEX
  5
530
  8
0
  6
CONTINUOUS
 62
     7
 10
3787.52805291438
 20
1687.221542962554
 30
0.0
  0
VERTEX
  5
531
  8
0
  6
CONTINUOUS
 62
     7
 10
3787.515344035589
 20
1687.223640679264
 30
0.0
  0
VERTEX
  5
532
  8
0
  6
CONTINUOUS
 62
     7
 10
3787.502578353971
 20
1687.225537232163
 30
0.0
  0
VERTEX
  5
533
  8
0
  6
CONTINUOUS
 62
     7
 10
3787.48975953923
 20
1687.227243039143
 30
0.0
  0
VERTEX
  5
534
  8
0
  6
CONTINUOUS
 62
     7
 10
3787.476892016849
 20
1687.22877397923
 30
0.0
  0
VERTEX
  5
535
  8
0
  6
CONTINUOUS
 62
     7
 10
3787.463980214794
 20
1687.230145949413
 30
0.0
  0
VERTEX
  5
536
  8
0
  6
CONTINUOUS
 62
     7
 10
3787.451028561033
 20
1687.231374846683
 30
0.0
  0
VERTEX
  5
537
  8
0
  6
CONTINUOUS
 62
     7
 10
3787.438041483532
 20
1687.232476568031
 30
0.0
  0
VERTEX
  5
538
  8
0
  6
CONTINUOUS
 62
     7
 10
3787.42502341026
 20
1687.233467010446
 30
0.0
  0
VERTEX
  5
539
  8
0
  6
CONTINUOUS
 62
     7
 10
3787.411978769184
 20
1687.234362070918
 30
0.0
  0
VERTEX
  5
53A
  8
0
  6
CONTINUOUS
 62
     7
 10
3787.39891198827
 20
1687.23517764644
 30
0.0
  0
VERTEX
  5
53B
  8
0
  6
CONTINUOUS
 62
     7
 10
3787.385827495488
 20
1687.235929634
 30
0.0
  0
VERTEX
  5
53C
  8
0
  6
CONTINUOUS
 62
     7
 10
3787.372729718802
 20
1687.236633930588
 30
0.0
  0
VERTEX
  5
53D
  8
0
  6
CONTINUOUS
 62
     7
 10
3787.359623086183
 20
1687.237306433196
 30
0.0
  0
VERTEX
  5
53E
  8
0
  6
CONTINUOUS
 62
     7
 10
3787.346512025596
 20
1687.237963038814
 30
0.0
  0
SEQEND
  5
682
  8
0
  6
CONTINUOUS
 62
     7
  0
LINE
  5
151
  8
0
  6
CONTINUOUS
 62
     7
 10
3786.196512025611
 20
1669.737963038807
 30
0.0
 11
3786.196512025611
 21
1678.846388881062
 31
0.0
  0
LINE
  5
152
  8
0
  6
CONTINUOUS
 62
     7
 10
3786.496512025602
 20
1687.237963038814
 30
0.0
 11
3787.346512025596
 21
1687.237963038814
 31
0.0
  0
LINE
  5
153
  8
0
  6
CONTINUOUS
 62
     7
 10
3785.996512025611
 20
1669.737963038807
 30
0.0
 11
3786.196512025611
 21
1669.737963038807
 31
0.0
  0
LINE
  5
154
  8
0
  6
CONTINUOUS
 62
     7
 10
3785.996512025602
 20
1724.737963038811
 30
0.0
 11
3786.196512025602
 21
1724.737963038811
 31
0.0
  0
LINE
  5
155
  8
0
  6
CONTINUOUS
 62
     7
 10
3786.196512025605
 20
1715.629537196562
 30
0.0
 11
3786.196512025602
 21
1724.737963038811
 31
0.0
  0
POLYLINE
  5
156
  8
0
  6
CONTINUOUS
 62
     7
 66
     1
 10
0.0
 20
0.0
 30
0.0
  0
VERTEX
  5
53F
  8
0
  6
CONTINUOUS
 62
     7
 10
3787.346512025607
 20
1707.237963038814
 30
0.0
  0
VERTEX
  5
540
  8
0
  6
CONTINUOUS
 62
     7
 10
3787.361784577783
 20
1707.238781010578
 30
0.0
  0
VERTEX
  5
541
  8
0
  6
CONTINUOUS
 62
     7
 10
3787.377050010199
 20
1707.23962252402
 30
0.0
  0
VERTEX
  5
542
  8
0
  6
CONTINUOUS
 62
     7
 10
3787.392301203094
 20
1707.240511120819
 30
0.0
  0
VERTEX
  5
543
  8
0
  6
CONTINUOUS
 62
     7
 10
3787.407531036708
 20
1707.241470342652
 30
0.0
  0
VERTEX
  5
544
  8
0
  6
CONTINUOUS
 62
     7
 10
3787.422732391281
 20
1707.242523731197
 30
0.0
  0
VERTEX
  5
545
  8
0
  6
CONTINUOUS
 62
     7
 10
3787.437898147053
 20
1707.243694828132
 30
0.0
  0
VERTEX
  5
546
  8
0
  6
CONTINUOUS
 62
     7
 10
3787.453021184261
 20
1707.245007175137
 30
0.0
  0
VERTEX
  5
547
  8
0
  6
CONTINUOUS
 62
     7
 10
3787.46809438315
 20
1707.246484313889
 30
0.0
  0
VERTEX
  5
548
  8
0
  6
CONTINUOUS
 62
     7
 10
3787.483110623954
 20
1707.248149786066
 30
0.0
  0
VERTEX
  5
549
  8
0
  6
CONTINUOUS
 62
     7
 10
3787.498062786916
 20
1707.250027133345
 30
0.0
  0
VERTEX
  5
54A
  8
0
  6
CONTINUOUS
 62
     7
 10
3787.512943752274
 20
1707.252139897406
 30
0.0
  0
VERTEX
  5
54B
  8
0
  6
CONTINUOUS
 62
     7
 10
3787.527746400455
 20
1707.254511619059
 30
0.0
  0
VERTEX
  5
54C
  8
0
  6
CONTINUOUS
 62
     7
 10
3787.542464996786
 20
1707.257159366527
 30
0.0
  0
VERTEX
  5
54D
  8
0
  6
CONTINUOUS
 62
     7
 10
3787.557098521344
 20
1707.260078172798
 30
0.0
  0
VERTEX
  5
54E
  8
0
  6
CONTINUOUS
 62
     7
 10
3787.571646956616
 20
1707.263258385909
 30
0.0
  0
VERTEX
  5
54F
  8
0
  6
CONTINUOUS
 62
     7
 10
3787.586110285095
 20
1707.266690353904
 30
0.0
  0
VERTEX
  5
550
  8
0
  6
CONTINUOUS
 62
     7
 10
3787.600488489269
 20
1707.270364424819
 30
0.0
  0
VERTEX
  5
551
  8
0
  6
CONTINUOUS
 62
     7
 10
3787.614781551625
 20
1707.274270946695
 30
0.0
  0
VERTEX
  5
552
  8
0
  6
CONTINUOUS
 62
     7
 10
3787.628989454653
 20
1707.278400267571
 30
0.0
  0
VERTEX
  5
553
  8
0
  6
CONTINUOUS
 62
     7
 10
3787.643112180842
 20
1707.282742735485
 30
0.0
  0
VERTEX
  5
554
  8
0
  6
CONTINUOUS
 62
     7
 10
3787.657149712683
 20
1707.287288698479
 30
0.0
  0
VERTEX
  5
555
  8
0
  6
CONTINUOUS
 62
     7
 10
3787.671102032662
 20
1707.292028504591
 30
0.0
  0
VERTEX
  5
556
  8
0
  6
CONTINUOUS
 62
     7
 10
3787.684969123269
 20
1707.296952501861
 30
0.0
  0
VERTEX
  5
557
  8
0
  6
CONTINUOUS
 62
     7
 10
3787.698750966994
 20
1707.302051038328
 30
0.0
  0
VERTEX
  5
558
  8
0
  6
CONTINUOUS
 62
     7
 10
3787.712447170978
 20
1707.307315481887
 30
0.0
  0
VERTEX
  5
559
  8
0
  6
CONTINUOUS
 62
     7
 10
3787.726053950223
 20
1707.312746417253
 30
0.0
  0
VERTEX
  5
55A
  8
0
  6
CONTINUOUS
 62
     7
 10
3787.739565718582
 20
1707.318349323038
 30
0.0
  0
VERTEX
  5
55B
  8
0
  6
CONTINUOUS
 62
     7
 10
3787.752976873325
 20
1707.324129722936
 30
0.0
  0
VERTEX
  5
55C
  8
0
  6
CONTINUOUS
 62
     7
 10
3787.766281811712
 20
1707.330093140642
 30
0.0
  0
VERTEX
  5
55D
  8
0
  6
CONTINUOUS
 62
     7
 10
3787.779474931011
 20
1707.336245099853
 30
0.0
  0
VERTEX
  5
55E
  8
0
  6
CONTINUOUS
 62
     7
 10
3787.792550628486
 20
1707.342591124264
 30
0.0
  0
VERTEX
  5
55F
  8
0
  6
CONTINUOUS
 62
     7
 10
3787.8055033014
 20
1707.349136737569
 30
0.0
  0
VERTEX
  5
560
  8
0
  6
CONTINUOUS
 62
     7
 10
3787.818327347018
 20
1707.355887463464
 30
0.0
  0
VERTEX
  5
561
  8
0
  6
CONTINUOUS
 62
     7
 10
3787.831017162606
 20
1707.362848825645
 30
0.0
  0
VERTEX
  5
562
  8
0
  6
CONTINUOUS
 62
     7
 10
3787.843567145429
 20
1707.370026347807
 30
0.0
  0
VERTEX
  5
563
  8
0
  6
CONTINUOUS
 62
     7
 10
3787.855971692749
 20
1707.377425553644
 30
0.0
  0
VERTEX
  5
564
  8
0
  6
CONTINUOUS
 62
     7
 10
3787.868226805933
 20
1707.385049809947
 30
0.0
  0
VERTEX
  5
565
  8
0
  6
CONTINUOUS
 62
     7
 10
3787.880340175243
 20
1707.392886766378
 30
0.0
  0
VERTEX
  5
566
  8
0
  6
CONTINUOUS
 62
     7
 10
3787.892324665519
 20
1707.400917114747
 30
0.0
  0
VERTEX
  5
567
  8
0
  6
CONTINUOUS
 62
     7
 10
3787.904193164668
 20
1707.409121515861
 30
0.0
  0
VERTEX
  5
568
  8
0
  6
CONTINUOUS
 62
     7
 10
3787.915958560593
 20
1707.417480630527
 30
0.0
  0
VERTEX
  5
569
  8
0
  6
CONTINUOUS
 62
     7
 10
3787.927633741196
 20
1707.425975119551
 30
0.0
  0
VERTEX
  5
56A
  8
0
  6
CONTINUOUS
 62
     7
 10
3787.939231594378
 20
1707.434585643737
 30
0.0
  0
VERTEX
  5
56B
  8
0
  6
CONTINUOUS
 62
     7
 10
3787.950765008044
 20
1707.443292863893
 30
0.0
  0
VERTEX
  5
56C
  8
0
  6
CONTINUOUS
 62
     7
 10
3787.962246870099
 20
1707.452077440825
 30
0.0
  0
VERTEX
  5
56D
  8
0
  6
CONTINUOUS
 62
     7
 10
3787.973690068444
 20
1707.460920035339
 30
0.0
  0
VERTEX
  5
56E
  8
0
  6
CONTINUOUS
 62
     7
 10
3787.985107490983
 20
1707.46980130824
 30
0.0
  0
VERTEX
  5
56F
  8
0
  6
CONTINUOUS
 62
     7
 10
3787.996512025618
 20
1707.478701920336
 30
0.0
  0
SEQEND
  5
683
  8
0
  6
CONTINUOUS
 62
     7
  0
LINE
  5
157
  8
0
  6
CONTINUOUS
 62
     7
 10
3787.346512025607
 20
1707.237963038814
 30
0.0
 11
3786.496512025603
 21
1707.237963038811
 31
0.0
  0
LINE
  5
158
  8
0
  6
CONTINUOUS
 62
     7
 10
3785.996512025612
 20
1668.737963038807
 30
0.0
 11
3786.196512025612
 21
1668.737963038807
 31
0.0
  0
LINE
  5
159
  8
0
  6
CONTINUOUS
 62
     7
 10
3785.996512025588
 20
1725.73796303881
 30
0.0
 11
3786.196512025588
 21
1725.73796303881
 31
0.0
  0
LINE
  5
15A
  8
0
  6
CONTINUOUS
 62
     7
 10
3787.996512025618
 20
1690.737963038814
 30
0.0
 11
3785.996512025604
 21
1690.737963038814
 31
0.0
  0
LINE
  5
15B
  8
0
  6
CONTINUOUS
 62
     7
 10
3785.996512025605
 20
1703.737963038815
 30
0.0
 11
3787.996512025618
 21
1703.737963038812
 31
0.0
  0
LINE
  5
15C
  8
0
  6
CONTINUOUS
 62
     7
 10
3787.26779457079
 20
1704.687963038815
 30
0.0
 11
3787.267794570791
 21
1703.737963038812
 31
0.0
  0
LINE
  5
15D
  8
0
  6
CONTINUOUS
 62
     7
 10
3787.267794570796
 20
1690.737963038813
 30
0.0
 11
3787.267794570796
 21
1689.787963038814
 31
0.0
  0
LINE
  5
15E
  8
0
  6
CONTINUOUS
 62
     7
 10
3787.267794570796
 20
1689.787963038814
 30
0.0
 11
3787.996512025618
 21
1689.787963038814
 31
0.0
  0
LINE
  5
15F
  8
0
  6
CONTINUOUS
 62
     7
 10
3787.26779457079
 20
1704.687963038815
 30
0.0
 11
3787.996512025618
 21
1704.687963038815
 31
0.0
  0
LINE
  5
160
  8
0
  6
CONTINUOUS
 62
     7
 10
3787.206425075195
 20
1704.687963038812
 30
0.0
 11
3787.206425075195
 21
1703.737963038812
 31
0.0
  0
LINE
  5
161
  8
0
  6
CONTINUOUS
 62
     7
 10
3787.20642507519
 20
1690.737963038813
 30
0.0
 11
3787.20642507519
 21
1689.787963038816
 31
0.0
  0
LINE
  5
162
  8
0
  6
CONTINUOUS
 62
     7
 10
3787.20642507519
 20
1689.787963038816
 30
0.0
 11
3787.267794570796
 21
1689.787963038814
 31
0.0
  0
LINE
  5
163
  8
0
  6
CONTINUOUS
 62
     7
 10
3787.206425075195
 20
1704.687963038812
 30
0.0
 11
3787.26779457079
 21
1704.687963038815
 31
0.0
  0
LINE
  5
164
  8
0
  6
CONTINUOUS
 62
     7
 10
3787.996512025618
 20
1254.737963038814
 30
0.0
 11
3785.996512025604
 21
1254.737963038814
 31
0.0
  0
LINE
  5
165
  8
0
  6
CONTINUOUS
 62
     7
 10
3785.996512025605
 20
1267.737963038815
 30
0.0
 11
3787.996512025618
 21
1267.737963038812
 31
0.0
  0
LINE
  5
166
  8
0
  6
CONTINUOUS
 62
     7
 10
3787.26779457079
 20
1268.687963038815
 30
0.0
 11
3787.267794570791
 21
1267.737963038812
 31
0.0
  0
LINE
  5
167
  8
0
  6
CONTINUOUS
 62
     7
 10
3787.267794570795
 20
1254.737963038813
 30
0.0
 11
3787.267794570796
 21
1253.787963038814
 31
0.0
  0
LINE
  5
168
  8
0
  6
CONTINUOUS
 62
     7
 10
3787.26779457079
 20
1268.687963038815
 30
0.0
 11
3787.996512025618
 21
1268.687963038815
 31
0.0
  0
LINE
  5
169
  8
0
  6
CONTINUOUS
 62
     7
 10
3787.267794570796
 20
1253.787963038814
 30
0.0
 11
3787.996512025618
 21
1253.787963038814
 31
0.0
  0
LINE
  5
16A
  8
0
  6
CONTINUOUS
 62
     7
 10
3787.206425075195
 20
1268.687963038812
 30
0.0
 11
3787.206425075195
 21
1267.737963038812
 31
0.0
  0
LINE
  5
16B
  8
0
  6
CONTINUOUS
 62
     7
 10
3787.20642507519
 20
1254.737963038813
 30
0.0
 11
3787.20642507519
 21
1253.787963038816
 31
0.0
  0
LINE
  5
16C
  8
0
  6
CONTINUOUS
 62
     7
 10
3787.206425075195
 20
1268.687963038812
 30
0.0
 11
3787.26779457079
 21
1268.687963038815
 31
0.0
  0
LINE
  5
16D
  8
0
  6
CONTINUOUS
 62
     7
 10
3787.20642507519
 20
1253.787963038816
 30
0.0
 11
3787.267794570796
 21
1253.787963038814
 31
0.0
  0
LINE
  5
16E
  8
0
  6
CONTINUOUS
 62
     7
 10
3786.496512025597
 20
1268.712963038814
 30
0.0
 11
3786.808077828435
 21
1268.712963038814
 31
0.0
  0
LINE
  5
16F
  8
0
  6
CONTINUOUS
 62
     7
 10
3786.808077828432
 20
1253.762963038814
 30
0.0
 11
3786.808077828432
 21
1254.737963038813
 31
0.0
  0
LINE
  5
170
  8
0
  6
CONTINUOUS
 62
     7
 10
3786.808077828435
 20
1267.737963038812
 30
0.0
 11
3786.808077828435
 21
1268.712963038814
 31
0.0
  0
LINE
  5
171
  8
0
  6
CONTINUOUS
 62
     7
 10
3786.496512025612
 20
1253.762963038814
 30
0.0
 11
3786.808077828432
 21
1253.762963038814
 31
0.0
  0
LINE
  5
172
  8
0
  6
CONTINUOUS
 62
     7
 10
3786.808077828435
 20
1268.712963038814
 30
0.0
 11
3786.847220422894
 21
1268.712963038814
 31
0.0
  0
LINE
  5
173
  8
0
  6
CONTINUOUS
 62
     7
 10
3786.808077828432
 20
1253.762963038814
 30
0.0
 11
3786.847220422891
 21
1253.762963038814
 31
0.0
  0
LINE
  5
174
  8
0
  6
CONTINUOUS
 62
     7
 10
3786.496512025597
 20
1704.712963038814
 30
0.0
 11
3786.808077828435
 21
1704.712963038814
 31
0.0
  0
LINE
  5
175
  8
0
  6
CONTINUOUS
 62
     7
 10
3786.808077828432
 20
1689.762963038814
 30
0.0
 11
3786.808077828432
 21
1690.737963038813
 31
0.0
  0
LINE
  5
176
  8
0
  6
CONTINUOUS
 62
     7
 10
3786.808077828435
 20
1703.737963038812
 30
0.0
 11
3786.808077828435
 21
1704.712963038814
 31
0.0
  0
LINE
  5
177
  8
0
  6
CONTINUOUS
 62
     7
 10
3786.496512025612
 20
1689.762963038814
 30
0.0
 11
3786.808077828432
 21
1689.762963038814
 31
0.0
  0
LINE
  5
178
  8
0
  6
CONTINUOUS
 62
     7
 10
3786.808077828435
 20
1704.712963038814
 30
0.0
 11
3786.847220422894
 21
1704.712963038814
 31
0.0
  0
LINE
  5
179
  8
0
  6
CONTINUOUS
 62
     7
 10
3786.808077828432
 20
1689.762963038814
 30
0.0
 11
3786.847220422891
 21
1689.762963038814
 31
0.0
  0
LINE
  5
17A
  8
0
  6
CONTINUOUS
 62
     8
 10
3786.196512025611
 20
1233.737963038807
 30
0.0
 11
3787.99651202562
 21
1233.737963038806
 31
0.0
  0
LINE
  5
17B
  8
0
  6
CONTINUOUS
 62
     8
 10
3786.196512025602
 20
1288.737963038811
 30
0.0
 11
3787.99651202562
 21
1288.73796303881
 31
0.0
  0
LINE
  5
17C
  8
0
  6
CONTINUOUS
 62
     8
 10
3787.346512025603
 20
1252.862963038814
 30
0.0
 11
3787.346512025606
 21
1251.237963038816
 31
0.0
  0
LINE
  5
17D
  8
0
  6
CONTINUOUS
 62
     8
 10
3787.34651202559
 20
1271.237963038812
 30
0.0
 11
3787.346512025603
 21
1269.612963038813
 31
0.0
  0
LINE
  5
17E
  8
0
  6
CONTINUOUS
 62
     8
 10
3786.196512025611
 20
1669.737963038807
 30
0.0
 11
3787.99651202562
 21
1669.737963038806
 31
0.0
  0
LINE
  5
17F
  8
0
  6
CONTINUOUS
 62
     8
 10
3786.196512025602
 20
1724.737963038811
 30
0.0
 11
3787.99651202562
 21
1724.73796303881
 31
0.0
  0
LINE
  5
180
  8
0
  6
CONTINUOUS
 62
     8
 10
3787.346512025603
 20
1688.862963038814
 30
0.0
 11
3787.346512025606
 21
1687.237963038817
 31
0.0
  0
LINE
  5
181
  8
0
  6
CONTINUOUS
 62
     8
 10
3787.34651202559
 20
1707.237963038812
 30
0.0
 11
3787.346512025603
 21
1705.612963038812
 31
0.0
  0
LINE
  5
182
  8
0
  6
CONTINUOUS
 62
     7
 10
2426.441905018051
 20
2619.457856325616
 30
0.0
 11
2426.441905018051
 21
2622.757856325616
 31
0.0
  0
LINE
  5
183
  8
0
  6
CONTINUOUS
 62
     7
 10
2426.441905018051
 20
2619.457856325616
 30
0.0
 11
2054.441905018051
 21
2619.457856325616
 31
0.0
  0
LINE
  5
184
  8
0
  6
CONTINUOUS
 62
     7
 10
2054.441905018051
 20
2619.457856325616
 30
0.0
 11
2054.441905018051
 21
2622.757856325616
 31
0.0
  0
LINE
  5
185
  8
0
  6
CONTINUOUS
 62
     7
 10
2426.441905018051
 20
2622.757856325616
 30
0.0
 11
2054.441905018051
 21
2622.757856325616
 31
0.0
  0
LINE
  5
186
  8
0
  6
CONTINUOUS
 62
     7
 10
2054.441905018051
 20
2622.757856325616
 30
0.0
 11
2054.441905018051
 21
2637.757856325616
 31
0.0
  0
LINE
  5
187
  8
0
  6
CONTINUOUS
 62
     7
 10
2426.441905018051
 20
2637.757856325616
 30
0.0
 11
2054.441905018051
 21
2637.757856325616
 31
0.0
  0
LINE
  5
188
  8
0
  6
CONTINUOUS
 62
     7
 10
2426.441905018051
 20
2622.757856325616
 30
0.0
 11
2426.441905018051
 21
2637.757856325616
 31
0.0
  0
LINE
  5
189
  8
0
  6
CONTINUOUS
 62
     7
 10
2801.441905018051
 20
2622.757856325621
 30
0.0
 11
2801.441905018051
 21
2637.757856325621
 31
0.0
  0
LINE
  5
18A
  8
0
  6
CONTINUOUS
 62
     7
 10
2801.441905018051
 20
2622.757856325621
 30
0.0
 11
2429.44190501805
 21
2622.757856325621
 31
0.0
  0
LINE
  5
18B
  8
0
  6
CONTINUOUS
 62
     7
 10
2429.44190501805
 20
2622.757856325621
 30
0.0
 11
2429.44190501805
 21
2637.757856325621
 31
0.0
  0
LINE
  5
18C
  8
0
  6
CONTINUOUS
 62
     7
 10
2801.441905018051
 20
2637.757856325621
 30
0.0
 11
2429.44190501805
 21
2637.757856325621
 31
0.0
  0
LINE
  5
18D
  8
0
  6
CONTINUOUS
 62
     7
 10
2802.941905018051
 20
2639.75785632562
 30
0.0
 11
2802.941905018051
 21
2769.75785632562
 31
0.0
  0
LINE
  5
18E
  8
0
  6
CONTINUOUS
 62
     7
 10
2802.941905018051
 20
2639.75785632562
 30
0.0
 11
2785.441905018051
 21
2639.75785632562
 31
0.0
  0
LINE
  5
18F
  8
0
  6
CONTINUOUS
 62
     7
 10
2785.441905018051
 20
2639.75785632562
 30
0.0
 11
2785.441905018051
 21
2769.75785632562
 31
0.0
  0
LINE
  5
190
  8
0
  6
CONTINUOUS
 62
     7
 10
2802.941905018051
 20
2769.75785632562
 30
0.0
 11
2785.441905018051
 21
2769.75785632562
 31
0.0
  0
LINE
  5
191
  8
0
  6
CONTINUOUS
 62
     7
 10
2070.441905018051
 20
2639.757856325616
 30
0.0
 11
2052.941905018051
 21
2639.757856325616
 31
0.0
  0
LINE
  5
192
  8
0
  6
CONTINUOUS
 62
     7
 10
2052.941905018051
 20
2639.757856325616
 30
0.0
 11
2052.941905018051
 21
2769.757856325616
 31
0.0
  0
LINE
  5
193
  8
0
  6
CONTINUOUS
 62
     7
 10
2070.441905018051
 20
2769.757856325616
 30
0.0
 11
2052.941905018051
 21
2769.757856325616
 31
0.0
  0
LINE
  5
194
  8
0
  6
CONTINUOUS
 62
     7
 10
2070.441905018051
 20
2639.757856325616
 30
0.0
 11
2070.441905018051
 21
2769.757856325616
 31
0.0
  0
LINE
  5
195
  8
0
  6
CONTINUOUS
 62
     7
 10
2761.941905013709
 20
2637.757856325604
 30
0.0
 11
2761.941905013709
 21
2637.957856325604
 31
0.0
  0
LINE
  5
196
  8
0
  6
CONTINUOUS
 62
     7
 10
2760.941905013708
 20
2637.757856325601
 30
0.0
 11
2760.941905013709
 21
2637.957856325601
 31
0.0
  0
LINE
  5
197
  8
0
  6
CONTINUOUS
 62
     7
 10
2760.941905013709
 20
2637.957856325601
 30
0.0
 11
2761.941905013709
 21
2637.957856325604
 31
0.0
  0
LINE
  5
198
  8
0
  6
CONTINUOUS
 62
     7
 10
2779.941905013709
 20
2639.957856325583
 30
0.0
 11
2763.94190501371
 21
2639.957856325589
 31
0.0
  0
POLYLINE
  5
199
  8
0
  6
CONTINUOUS
 62
     7
 66
     1
 10
0.0
 20
0.0
 30
0.0
  0
VERTEX
  5
570
  8
0
  6
CONTINUOUS
 62
     7
 10
2781.94190501371
 20
2637.957856325588
 30
0.0
  0
VERTEX
  5
571
  8
0
  6
CONTINUOUS
 62
     7
 10
2781.936629784313
 20
2638.007087979403
 30
0.0
  0
VERTEX
  5
572
  8
0
  6
CONTINUOUS
 62
     7
 10
2781.931254787727
 20
2638.056289069433
 30
0.0
  0
VERTEX
  5
573
  8
0
  6
CONTINUOUS
 62
     7
 10
2781.925680256764
 20
2638.105429031897
 30
0.0
  0
VERTEX
  5
574
  8
0
  6
CONTINUOUS
 62
     7
 10
2781.919806424234
 20
2638.154477303007
 30
0.0
  0
VERTEX
  5
575
  8
0
  6
CONTINUOUS
 62
     7
 10
2781.91353352295
 20
2638.203403318983
 30
0.0
  0
VERTEX
  5
576
  8
0
  6
CONTINUOUS
 62
     7
 10
2781.906761785724
 20
2638.252176516039
 30
0.0
  0
VERTEX
  5
577
  8
0
  6
CONTINUOUS
 62
     7
 10
2781.899391445364
 20
2638.300766330392
 30
0.0
  0
VERTEX
  5
578
  8
0
  6
CONTINUOUS
 62
     7
 10
2781.891322734685
 20
2638.349142198257
 30
0.0
  0
VERTEX
  5
579
  8
0
  6
CONTINUOUS
 62
     7
 10
2781.882455886497
 20
2638.397273555851
 30
0.0
  0
VERTEX
  5
57A
  8
0
  6
CONTINUOUS
 62
     7
 10
2781.872691133611
 20
2638.445129839391
 30
0.0
  0
VERTEX
  5
57B
  8
0
  6
CONTINUOUS
 62
     7
 10
2781.861928708838
 20
2638.492680485089
 30
0.0
  0
VERTEX
  5
57C
  8
0
  6
CONTINUOUS
 62
     7
 10
2781.85006884499
 20
2638.539894929166
 30
0.0
  0
VERTEX
  5
57D
  8
0
  6
CONTINUOUS
 62
     7
 10
2781.837011774879
 20
2638.586742607836
 30
0.0
  0
VERTEX
  5
57E
  8
0
  6
CONTINUOUS
 62
     7
 10
2781.822657731315
 20
2638.633192957314
 30
0.0
  0
VERTEX
  5
57F
  8
0
  6
CONTINUOUS
 62
     7
 10
2781.806906947111
 20
2638.679215413819
 30
0.0
  0
VERTEX
  5
580
  8
0
  6
CONTINUOUS
 62
     7
 10
2781.789668553015
 20
2638.724779784927
 30
0.0
  0
VERTEX
  5
581
  8
0
  6
CONTINUOUS
 62
     7
 10
2781.770951816939
 20
2638.769860057523
 30
0.0
  0
VERTEX
  5
582
  8
0
  6
CONTINUOUS
 62
     7
 10
2781.750829077564
 20
2638.814432850802
 30
0.0
  0
VERTEX
  5
583
  8
0
  6
CONTINUOUS
 62
     7
 10
2781.729373657943
 20
2638.858474825041
 30
0.0
  0
VERTEX
  5
584
  8
0
  6
CONTINUOUS
 62
     7
 10
2781.706658881126
 20
2638.901962640517
 30
0.0
  0
VERTEX
  5
585
  8
0
  6
CONTINUOUS
 62
     7
 10
2781.682758070166
 20
2638.944872957508
 30
0.0
  0
VERTEX
  5
586
  8
0
  6
CONTINUOUS
 62
     7
 10
2781.657744548111
 20
2638.987182436291
 30
0.0
  0
VERTEX
  5
587
  8
0
  6
CONTINUOUS
 62
     7
 10
2781.631691638016
 20
2639.028867737145
 30
0.0
  0
VERTEX
  5
588
  8
0
  6
CONTINUOUS
 62
     7
 10
2781.604672215467
 20
2639.06990551851
 30
0.0
  0
VERTEX
  5
589
  8
0
  6
CONTINUOUS
 62
     7
 10
2781.576734139425
 20
2639.1102723363
 30
0.0
  0
VERTEX
  5
58A
  8
0
  6
CONTINUOUS
 62
     7
 10
2781.547887510866
 20
2639.149944591662
 30
0.0
  0
VERTEX
  5
58B
  8
0
  6
CONTINUOUS
 62
     7
 10
2781.518139298875
 20
2639.188898672915
 30
0.0
  0
VERTEX
  5
58C
  8
0
  6
CONTINUOUS
 62
     7
 10
2781.487496472541
 20
2639.227110968372
 30
0.0
  0
VERTEX
  5
58D
  8
0
  6
CONTINUOUS
 62
     7
 10
2781.45596600095
 20
2639.264557866349
 30
0.0
  0
VERTEX
  5
58E
  8
0
  6
CONTINUOUS
 62
     7
 10
2781.423554853188
 20
2639.301215755162
 30
0.0
  0
VERTEX
  5
58F
  8
0
  6
CONTINUOUS
 62
     7
 10
2781.390269998344
 20
2639.337061023125
 30
0.0
  0
VERTEX
  5
590
  8
0
  6
CONTINUOUS
 62
     7
 10
2781.356118405503
 20
2639.372070058554
 30
0.0
  0
VERTEX
  5
591
  8
0
  6
CONTINUOUS
 62
     7
 10
2781.321109812704
 20
2639.40622202858
 30
0.0
  0
VERTEX
  5
592
  8
0
  6
CONTINUOUS
 62
     7
 10
2781.285265033614
 20
2639.439507215434
 30
0.0
  0
VERTEX
  5
593
  8
0
  6
CONTINUOUS
 62
     7
 10
2781.248607650774
 20
2639.471918680078
 30
0.0
  0
VERTEX
  5
594
  8
0
  6
CONTINUOUS
 62
     7
 10
2781.211161246719
 20
2639.503449483475
 30
0.0
  0
VERTEX
  5
595
  8
0
  6
CONTINUOUS
 62
     7
 10
2781.172949403989
 20
2639.534092686591
 30
0.0
  0
VERTEX
  5
596
  8
0
  6
CONTINUOUS
 62
     7
 10
2781.133995705122
 20
2639.563841350386
 30
0.0
  0
VERTEX
  5
597
  8
0
  6
CONTINUOUS
 62
     7
 10
2781.094323732656
 20
2639.592688535826
 30
0.0
  0
VERTEX
  5
598
  8
0
  6
CONTINUOUS
 62
     7
 10
2781.053957069127
 20
2639.620627303873
 30
0.0
  0
VERTEX
  5
599
  8
0
  6
CONTINUOUS
 62
     7
 10
2781.012919286482
 20
2639.64764742691
 30
0.0
  0
VERTEX
  5
59A
  8
0
  6
CONTINUOUS
 62
     7
 10
2780.971233833975
 20
2639.673700584186
 30
0.0
  0
VERTEX
  5
59B
  8
0
  6
CONTINUOUS
 62
     7
 10
2780.928924081908
 20
2639.698713943461
 30
0.0
  0
VERTEX
  5
59C
  8
0
  6
CONTINUOUS
 62
     7
 10
2780.886013399279
 20
2639.722614266869
 30
0.0
  0
VERTEX
  5
59D
  8
0
  6
CONTINUOUS
 62
     7
 10
2780.842525155087
 20
2639.74532831654
 30
0.0
  0
VERTEX
  5
59E
  8
0
  6
CONTINUOUS
 62
     7
 10
2780.798482718328
 20
2639.766782854608
 30
0.0
  0
VERTEX
  5
59F
  8
0
  6
CONTINUOUS
 62
     7
 10
2780.753909458002
 20
2639.786904643207
 30
0.0
  0
VERTEX
  5
5A0
  8
0
  6
CONTINUOUS
 62
     7
 10
2780.708828743103
 20
2639.805620444469
 30
0.0
  0
VERTEX
  5
5A1
  8
0
  6
CONTINUOUS
 62
     7
 10
2780.663263983521
 20
2639.822858004351
 30
0.0
  0
VERTEX
  5
5A2
  8
0
  6
CONTINUOUS
 62
     7
 10
2780.617241209031
 20
2639.838608104772
 30
0.0
  0
VERTEX
  5
5A3
  8
0
  6
CONTINUOUS
 62
     7
 10
2780.57079060899
 20
2639.852961609537
 30
0.0
  0
VERTEX
  5
5A4
  8
0
  6
CONTINUOUS
 62
     7
 10
2780.523942742365
 20
2639.866018275477
 30
0.0
  0
VERTEX
  5
5A5
  8
0
  6
CONTINUOUS
 62
     7
 10
2780.476728168125
 20
2639.877877859426
 30
0.0
  0
VERTEX
  5
5A6
  8
0
  6
CONTINUOUS
 62
     7
 10
2780.429177445237
 20
2639.888640118218
 30
0.0
  0
VERTEX
  5
5A7
  8
0
  6
CONTINUOUS
 62
     7
 10
2780.381321132671
 20
2639.898404808684
 30
0.0
  0
VERTEX
  5
5A8
  8
0
  6
CONTINUOUS
 62
     7
 10
2780.333189789393
 20
2639.907271687656
 30
0.0
  0
VERTEX
  5
5A9
  8
0
  6
CONTINUOUS
 62
     7
 10
2780.284813974371
 20
2639.915340511966
 30
0.0
  0
VERTEX
  5
5AA
  8
0
  6
CONTINUOUS
 62
     7
 10
2780.236224246574
 20
2639.92271103845
 30
0.0
  0
VERTEX
  5
5AB
  8
0
  6
CONTINUOUS
 62
     7
 10
2780.187451164969
 20
2639.929483023938
 30
0.0
  0
VERTEX
  5
5AC
  8
0
  6
CONTINUOUS
 62
     7
 10
2780.138525288525
 20
2639.935756225262
 30
0.0
  0
VERTEX
  5
5AD
  8
0
  6
CONTINUOUS
 62
     7
 10
2780.08947717621
 20
2639.941630399257
 30
0.0
  0
VERTEX
  5
5AE
  8
0
  6
CONTINUOUS
 62
     7
 10
2780.040337386989
 20
2639.947205302753
 30
0.0
  0
VERTEX
  5
5AF
  8
0
  6
CONTINUOUS
 62
     7
 10
2779.991136479834
 20
2639.952580692584
 30
0.0
  0
VERTEX
  5
5B0
  8
0
  6
CONTINUOUS
 62
     7
 10
2779.941905013709
 20
2639.957856325583
 30
0.0
  0
SEQEND
  5
684
  8
0
  6
CONTINUOUS
 62
     7
  0
LINE
  5
19A
  8
0
  6
CONTINUOUS
 62
     7
 10
2781.94190501371
 20
2637.757856325588
 30
0.0
 11
2781.94190501371
 21
2637.957856325588
 31
0.0
  0
POLYLINE
  5
19B
  8
0
  6
CONTINUOUS
 62
     7
 66
     1
 10
0.0
 20
0.0
 30
0.0
  0
VERTEX
  5
5B1
  8
0
  6
CONTINUOUS
 62
     7
 10
2763.94190501371
 20
2639.957856325589
 30
0.0
  0
VERTEX
  5
5B2
  8
0
  6
CONTINUOUS
 62
     7
 10
2763.892673359896
 20
2639.952581096192
 30
0.0
  0
VERTEX
  5
5B3
  8
0
  6
CONTINUOUS
 62
     7
 10
2763.843472269864
 20
2639.947206099608
 30
0.0
  0
VERTEX
  5
5B4
  8
0
  6
CONTINUOUS
 62
     7
 10
2763.794332307402
 20
2639.941631568645
 30
0.0
  0
VERTEX
  5
5B5
  8
0
  6
CONTINUOUS
 62
     7
 10
2763.74528403629
 20
2639.935757736117
 30
0.0
  0
VERTEX
  5
5B6
  8
0
  6
CONTINUOUS
 62
     7
 10
2763.696358020315
 20
2639.929484834834
 30
0.0
  0
VERTEX
  5
5B7
  8
0
  6
CONTINUOUS
 62
     7
 10
2763.647584823259
 20
2639.922713097609
 30
0.0
  0
VERTEX
  5
5B8
  8
0
  6
CONTINUOUS
 62
     7
 10
2763.598995008906
 20
2639.915342757251
 30
0.0
  0
VERTEX
  5
5B9
  8
0
  6
CONTINUOUS
 62
     7
 10
2763.550619141041
 20
2639.907274046572
 30
0.0
  0
VERTEX
  5
5BA
  8
0
  6
CONTINUOUS
 62
     7
 10
2763.502487783447
 20
2639.898407198384
 30
0.0
  0
VERTEX
  5
5BB
  8
0
  6
CONTINUOUS
 62
     7
 10
2763.454631499909
 20
2639.888642445499
 30
0.0
  0
VERTEX
  5
5BC
  8
0
  6
CONTINUOUS
 62
     7
 10
2763.407080854209
 20
2639.877880020726
 30
0.0
  0
VERTEX
  5
5BD
  8
0
  6
CONTINUOUS
 62
     7
 10
2763.359866410133
 20
2639.866020156879
 30
0.0
  0
VERTEX
  5
5BE
  8
0
  6
CONTINUOUS
 62
     7
 10
2763.313018731463
 20
2639.852963086768
 30
0.0
  0
VERTEX
  5
5BF
  8
0
  6
CONTINUOUS
 62
     7
 10
2763.266568381984
 20
2639.838609043204
 30
0.0
  0
VERTEX
  5
5C0
  8
0
  6
CONTINUOUS
 62
     7
 10
2763.22054592548
 20
2639.822858259
 30
0.0
  0
VERTEX
  5
5C1
  8
0
  6
CONTINUOUS
 62
     7
 10
2763.174981554373
 20
2639.805619864904
 30
0.0
  0
VERTEX
  5
5C2
  8
0
  6
CONTINUOUS
 62
     7
 10
2763.129901281777
 20
2639.786903128828
 30
0.0
  0
VERTEX
  5
5C3
  8
0
  6
CONTINUOUS
 62
     7
 10
2763.085328488498
 20
2639.766780389453
 30
0.0
  0
VERTEX
  5
5C4
  8
0
  6
CONTINUOUS
 62
     7
 10
2763.04128651426
 20
2639.745324969831
 30
0.0
  0
VERTEX
  5
5C5
  8
0
  6
CONTINUOUS
 62
     7
 10
2762.997798698784
 20
2639.722610193015
 30
0.0
  0
VERTEX
  5
5C6
  8
0
  6
CONTINUOUS
 62
     7
 10
2762.954888381793
 20
2639.698709382053
 30
0.0
  0
VERTEX
  5
5C7
  8
0
  6
CONTINUOUS
 62
     7
 10
2762.91257890301
 20
2639.673695859999
 30
0.0
  0
VERTEX
  5
5C8
  8
0
  6
CONTINUOUS
 62
     7
 10
2762.870893602157
 20
2639.647642949903
 30
0.0
  0
VERTEX
  5
5C9
  8
0
  6
CONTINUOUS
 62
     7
 10
2762.829855820792
 20
2639.620623527355
 30
0.0
  0
VERTEX
  5
5CA
  8
0
  6
CONTINUOUS
 62
     7
 10
2762.789489003002
 20
2639.592685451313
 30
0.0
  0
VERTEX
  5
5CB
  8
0
  6
CONTINUOUS
 62
     7
 10
2762.74981674764
 20
2639.563838822753
 30
0.0
  0
VERTEX
  5
5CC
  8
0
  6
CONTINUOUS
 62
     7
 10
2762.710862666388
 20
2639.534090610763
 30
0.0
  0
VERTEX
  5
5CD
  8
0
  6
CONTINUOUS
 62
     7
 10
2762.672650370931
 20
2639.503447784428
 30
0.0
  0
VERTEX
  5
5CE
  8
0
  6
CONTINUOUS
 62
     7
 10
2762.635203472955
 20
2639.471917312837
 30
0.0
  0
VERTEX
  5
5CF
  8
0
  6
CONTINUOUS
 62
     7
 10
2762.598545584142
 20
2639.439506165075
 30
0.0
  0
VERTEX
  5
5D0
  8
0
  6
CONTINUOUS
 62
     7
 10
2762.56270031618
 20
2639.406221310231
 30
0.0
  0
VERTEX
  5
5D1
  8
0
  6
CONTINUOUS
 62
     7
 10
2762.527691280751
 20
2639.372069717391
 30
0.0
  0
VERTEX
  5
5D2
  8
0
  6
CONTINUOUS
 62
     7
 10
2762.493539310725
 20
2639.33706112459
 30
0.0
  0
VERTEX
  5
5D3
  8
0
  6
CONTINUOUS
 62
     7
 10
2762.460254123872
 20
2639.301216345501
 30
0.0
  0
VERTEX
  5
5D4
  8
0
  6
CONTINUOUS
 62
     7
 10
2762.427842659229
 20
2639.26455896266
 30
0.0
  0
VERTEX
  5
5D5
  8
0
  6
CONTINUOUS
 62
     7
 10
2762.396311855832
 20
2639.227112558606
 30
0.0
  0
VERTEX
  5
5D6
  8
0
  6
CONTINUOUS
 62
     7
 10
2762.365668652717
 20
2639.188900715876
 30
0.0
  0
VERTEX
  5
5D7
  8
0
  6
CONTINUOUS
 62
     7
 10
2762.335919988922
 20
2639.149947017009
 30
0.0
  0
VERTEX
  5
5D8
  8
0
  6
CONTINUOUS
 62
     7
 10
2762.307072803482
 20
2639.110275044542
 30
0.0
  0
VERTEX
  5
5D9
  8
0
  6
CONTINUOUS
 62
     7
 10
2762.279134035435
 20
2639.069908381013
 30
0.0
  0
VERTEX
  5
5DA
  8
0
  6
CONTINUOUS
 62
     7
 10
2762.252113912398
 20
2639.028870598369
 30
0.0
  0
VERTEX
  5
5DB
  8
0
  6
CONTINUOUS
 62
     7
 10
2762.226060755123
 20
2638.987185145861
 30
0.0
  0
VERTEX
  5
5DC
  8
0
  6
CONTINUOUS
 62
     7
 10
2762.201047395847
 20
2638.944875393795
 30
0.0
  0
VERTEX
  5
5DD
  8
0
  6
CONTINUOUS
 62
     7
 10
2762.177147072441
 20
2638.901964711166
 30
0.0
  0
VERTEX
  5
5DE
  8
0
  6
CONTINUOUS
 62
     7
 10
2762.15443302277
 20
2638.858476466974
 30
0.0
  0
VERTEX
  5
5DF
  8
0
  6
CONTINUOUS
 62
     7
 10
2762.132978484702
 20
2638.814434030216
 30
0.0
  0
VERTEX
  5
5E0
  8
0
  6
CONTINUOUS
 62
     7
 10
2762.112856696102
 20
2638.769860769889
 30
0.0
  0
VERTEX
  5
5E1
  8
0
  6
CONTINUOUS
 62
     7
 10
2762.09414089484
 20
2638.724780054991
 30
0.0
  0
VERTEX
  5
5E2
  8
0
  6
CONTINUOUS
 62
     7
 10
2762.076903334957
 20
2638.67921529541
 30
0.0
  0
VERTEX
  5
5E3
  8
0
  6
CONTINUOUS
 62
     7
 10
2762.061153234537
 20
2638.63319252092
 30
0.0
  0
VERTEX
  5
5E4
  8
0
  6
CONTINUOUS
 62
     7
 10
2762.046799729771
 20
2638.586741920879
 30
0.0
  0
VERTEX
  5
5E5
  8
0
  6
CONTINUOUS
 62
     7
 10
2762.033743063829
 20
2638.539894054254
 30
0.0
  0
VERTEX
  5
5E6
  8
0
  6
CONTINUOUS
 62
     7
 10
2762.021883479878
 20
2638.492679480014
 30
0.0
  0
VERTEX
  5
5E7
  8
0
  6
CONTINUOUS
 62
     7
 10
2762.011121221087
 20
2638.445128757128
 30
0.0
  0
VERTEX
  5
5E8
  8
0
  6
CONTINUOUS
 62
     7
 10
2762.00135653062
 20
2638.397272444562
 30
0.0
  0
VERTEX
  5
5E9
  8
0
  6
CONTINUOUS
 62
     7
 10
2761.992489651647
 20
2638.349141101284
 30
0.0
  0
VERTEX
  5
5EA
  8
0
  6
CONTINUOUS
 62
     7
 10
2761.984420827335
 20
2638.300765286263
 30
0.0
  0
VERTEX
  5
5EB
  8
0
  6
CONTINUOUS
 62
     7
 10
2761.97705030085
 20
2638.252175558466
 30
0.0
  0
VERTEX
  5
5EC
  8
0
  6
CONTINUOUS
 62
     7
 10
2761.970278315362
 20
2638.203402476862
 30
0.0
  0
VERTEX
  5
5ED
  8
0
  6
CONTINUOUS
 62
     7
 10
2761.964005114036
 20
2638.154476600418
 30
0.0
  0
VERTEX
  5
5EE
  8
0
  6
CONTINUOUS
 62
     7
 10
2761.95813094004
 20
2638.105428488102
 30
0.0
  0
VERTEX
  5
5EF
  8
0
  6
CONTINUOUS
 62
     7
 10
2761.952556036542
 20
2638.056288698882
 30
0.0
  0
VERTEX
  5
5F0
  8
0
  6
CONTINUOUS
 62
     7
 10
2761.94718064671
 20
2638.007087791727
 30
0.0
  0
VERTEX
  5
5F1
  8
0
  6
CONTINUOUS
 62
     7
 10
2761.941905013709
 20
2637.957856325604
 30
0.0
  0
SEQEND
  5
685
  8
0
  6
CONTINUOUS
 62
     7
  0
LINE
  5
19C
  8
0
  6
CONTINUOUS
 62
     7
 10
2782.94190501371
 20
2637.957856325602
 30
0.0
 11
2781.94190501371
 21
2637.957856325588
 31
0.0
  0
LINE
  5
19D
  8
0
  6
CONTINUOUS
 62
     7
 10
2782.94190501371
 20
2637.757856325602
 30
0.0
 11
2782.94190501371
 21
2637.957856325602
 31
0.0
  0
ARC
  5
19E
  8
0
  6
CONTINUOUS
 62
     7
 10
2763.941905013709
 20
2637.957856325589
 30
0.0
 40
3.000000000000473
 50
129.9445051891169
 51
179.9999999997559
  0
ARC
  5
19F
  8
0
  6
CONTINUOUS
 62
     7
 10
2779.94190501371
 20
2637.957856325582
 30
0.0
 40
3.000000000000098
 50
0.0000000003825239
 51
50.05549481108108
  0
LINE
  5
1A0
  8
0
  6
CONTINUOUS
 62
     7
 10
2797.129579767503
 20
2638.257856325605
 30
0.0
 11
2782.941905013712
 21
2638.257856325605
 31
0.0
  0
LINE
  5
1A1
  8
0
  6
CONTINUOUS
 62
     7
 10
2797.129579767504
 20
2637.75785632561
 30
0.0
 11
2797.129579767503
 21
2638.257856325605
 31
0.0
  0
LINE
  5
1A2
  8
0
  6
CONTINUOUS
 62
     7
 10
2782.941905013712
 20
2638.257856325605
 30
0.0
 11
2782.941905013711
 21
2637.957856325605
 31
0.0
  0
LINE
  5
1A3
  8
0
  6
CONTINUOUS
 62
     7
 10
2093.941905022393
 20
2637.957856325607
 30
0.0
 11
2093.941905022394
 21
2637.757856325607
 31
0.0
  0
LINE
  5
1A4
  8
0
  6
CONTINUOUS
 62
     7
 10
2073.941905022391
 20
2637.757856325624
 30
0.0
 11
2073.941905022391
 21
2637.957856325624
 31
0.0
  0
POLYLINE
  5
1A5
  8
0
  6
CONTINUOUS
 62
     7
 66
     1
 10
0.0
 20
0.0
 30
0.0
  0
VERTEX
  5
5F2
  8
0
  6
CONTINUOUS
 62
     7
 10
2075.941905022392
 20
2639.957856325605
 30
0.0
  0
VERTEX
  5
5F3
  8
0
  6
CONTINUOUS
 62
     7
 10
2075.892673368577
 20
2639.952581096209
 30
0.0
  0
VERTEX
  5
5F4
  8
0
  6
CONTINUOUS
 62
     7
 10
2075.843472278546
 20
2639.947206099625
 30
0.0
  0
VERTEX
  5
5F5
  8
0
  6
CONTINUOUS
 62
     7
 10
2075.794332316083
 20
2639.941631568662
 30
0.0
  0
VERTEX
  5
5F6
  8
0
  6
CONTINUOUS
 62
     7
 10
2075.745284044973
 20
2639.935757736133
 30
0.0
  0
VERTEX
  5
5F7
  8
0
  6
CONTINUOUS
 62
     7
 10
2075.696358028997
 20
2639.929484834851
 30
0.0
  0
VERTEX
  5
5F8
  8
0
  6
CONTINUOUS
 62
     7
 10
2075.647584831941
 20
2639.922713097625
 30
0.0
  0
VERTEX
  5
5F9
  8
0
  6
CONTINUOUS
 62
     7
 10
2075.598995017589
 20
2639.915342757267
 30
0.0
  0
VERTEX
  5
5FA
  8
0
  6
CONTINUOUS
 62
     7
 10
2075.550619149724
 20
2639.907274046589
 30
0.0
  0
VERTEX
  5
5FB
  8
0
  6
CONTINUOUS
 62
     7
 10
2075.50248779213
 20
2639.8984071984
 30
0.0
  0
VERTEX
  5
5FC
  8
0
  6
CONTINUOUS
 62
     7
 10
2075.454631508591
 20
2639.888642445515
 30
0.0
  0
VERTEX
  5
5FD
  8
0
  6
CONTINUOUS
 62
     7
 10
2075.407080862892
 20
2639.877880020743
 30
0.0
  0
VERTEX
  5
5FE
  8
0
  6
CONTINUOUS
 62
     7
 10
2075.359866418815
 20
2639.866020156895
 30
0.0
  0
VERTEX
  5
5FF
  8
0
  6
CONTINUOUS
 62
     7
 10
2075.313018740146
 20
2639.852963086784
 30
0.0
  0
VERTEX
  5
600
  8
0
  6
CONTINUOUS
 62
     7
 10
2075.266568390667
 20
2639.83860904322
 30
0.0
  0
VERTEX
  5
601
  8
0
  6
CONTINUOUS
 62
     7
 10
2075.220545934164
 20
2639.822858259016
 30
0.0
  0
VERTEX
  5
602
  8
0
  6
CONTINUOUS
 62
     7
 10
2075.174981563055
 20
2639.805619864921
 30
0.0
  0
VERTEX
  5
603
  8
0
  6
CONTINUOUS
 62
     7
 10
2075.129901290459
 20
2639.786903128844
 30
0.0
  0
VERTEX
  5
604
  8
0
  6
CONTINUOUS
 62
     7
 10
2075.085328497181
 20
2639.76678038947
 30
0.0
  0
VERTEX
  5
605
  8
0
  6
CONTINUOUS
 62
     7
 10
2075.041286522942
 20
2639.745324969848
 30
0.0
  0
VERTEX
  5
606
  8
0
  6
CONTINUOUS
 62
     7
 10
2074.997798707467
 20
2639.722610193031
 30
0.0
  0
VERTEX
  5
607
  8
0
  6
CONTINUOUS
 62
     7
 10
2074.954888390476
 20
2639.698709382071
 30
0.0
  0
VERTEX
  5
608
  8
0
  6
CONTINUOUS
 62
     7
 10
2074.912578911693
 20
2639.673695860016
 30
0.0
  0
VERTEX
  5
609
  8
0
  6
CONTINUOUS
 62
     7
 10
2074.87089361084
 20
2639.647642949921
 30
0.0
  0
VERTEX
  5
60A
  8
0
  6
CONTINUOUS
 62
     7
 10
2074.829855829474
 20
2639.620623527372
 30
0.0
  0
VERTEX
  5
60B
  8
0
  6
CONTINUOUS
 62
     7
 10
2074.789489011685
 20
2639.59268545133
 30
0.0
  0
VERTEX
  5
60C
  8
0
  6
CONTINUOUS
 62
     7
 10
2074.749816756323
 20
2639.56383882277
 30
0.0
  0
VERTEX
  5
60D
  8
0
  6
CONTINUOUS
 62
     7
 10
2074.710862675071
 20
2639.534090610781
 30
0.0
  0
VERTEX
  5
60E
  8
0
  6
CONTINUOUS
 62
     7
 10
2074.672650379614
 20
2639.503447784446
 30
0.0
  0
VERTEX
  5
60F
  8
0
  6
CONTINUOUS
 62
     7
 10
2074.635203481637
 20
2639.471917312855
 30
0.0
  0
VERTEX
  5
610
  8
0
  6
CONTINUOUS
 62
     7
 10
2074.598545592825
 20
2639.439506165094
 30
0.0
  0
VERTEX
  5
611
  8
0
  6
CONTINUOUS
 62
     7
 10
2074.562700324862
 20
2639.40622131025
 30
0.0
  0
VERTEX
  5
612
  8
0
  6
CONTINUOUS
 62
     7
 10
2074.527691289433
 20
2639.372069717409
 30
0.0
  0
VERTEX
  5
613
  8
0
  6
CONTINUOUS
 62
     7
 10
2074.493539319407
 20
2639.337061124609
 30
0.0
  0
VERTEX
  5
614
  8
0
  6
CONTINUOUS
 62
     7
 10
2074.460254132555
 20
2639.30121634552
 30
0.0
  0
VERTEX
  5
615
  8
0
  6
CONTINUOUS
 62
     7
 10
2074.427842667912
 20
2639.264558962679
 30
0.0
  0
VERTEX
  5
616
  8
0
  6
CONTINUOUS
 62
     7
 10
2074.396311864515
 20
2639.227112558625
 30
0.0
  0
VERTEX
  5
617
  8
0
  6
CONTINUOUS
 62
     7
 10
2074.3656686614
 20
2639.188900715895
 30
0.0
  0
VERTEX
  5
618
  8
0
  6
CONTINUOUS
 62
     7
 10
2074.335919997604
 20
2639.149947017027
 30
0.0
  0
VERTEX
  5
619
  8
0
  6
CONTINUOUS
 62
     7
 10
2074.307072812165
 20
2639.110275044561
 30
0.0
  0
VERTEX
  5
61A
  8
0
  6
CONTINUOUS
 62
     7
 10
2074.279134044118
 20
2639.069908381032
 30
0.0
  0
VERTEX
  5
61B
  8
0
  6
CONTINUOUS
 62
     7
 10
2074.252113921081
 20
2639.028870598388
 30
0.0
  0
VERTEX
  5
61C
  8
0
  6
CONTINUOUS
 62
     7
 10
2074.226060763805
 20
2638.98718514588
 30
0.0
  0
VERTEX
  5
61D
  8
0
  6
CONTINUOUS
 62
     7
 10
2074.201047404531
 20
2638.944875393813
 30
0.0
  0
VERTEX
  5
61E
  8
0
  6
CONTINUOUS
 62
     7
 10
2074.177147081124
 20
2638.901964711185
 30
0.0
  0
VERTEX
  5
61F
  8
0
  6
CONTINUOUS
 62
     7
 10
2074.154433031453
 20
2638.858476466993
 30
0.0
  0
VERTEX
  5
620
  8
0
  6
CONTINUOUS
 62
     7
 10
2074.132978493384
 20
2638.814434030235
 30
0.0
  0
VERTEX
  5
621
  8
0
  6
CONTINUOUS
 62
     7
 10
2074.112856704785
 20
2638.769860769909
 30
0.0
  0
VERTEX
  5
622
  8
0
  6
CONTINUOUS
 62
     7
 10
2074.094140903522
 20
2638.72478005501
 30
0.0
  0
VERTEX
  5
623
  8
0
  6
CONTINUOUS
 62
     7
 10
2074.07690334364
 20
2638.679215295429
 30
0.0
  0
VERTEX
  5
624
  8
0
  6
CONTINUOUS
 62
     7
 10
2074.061153243219
 20
2638.63319252094
 30
0.0
  0
VERTEX
  5
625
  8
0
  6
CONTINUOUS
 62
     7
 10
2074.046799738453
 20
2638.586741920898
 30
0.0
  0
VERTEX
  5
626
  8
0
  6
CONTINUOUS
 62
     7
 10
2074.033743072511
 20
2638.539894054274
 30
0.0
  0
VERTEX
  5
627
  8
0
  6
CONTINUOUS
 62
     7
 10
2074.021883488561
 20
2638.492679480034
 30
0.0
  0
VERTEX
  5
628
  8
0
  6
CONTINUOUS
 62
     7
 10
2074.011121229769
 20
2638.445128757148
 30
0.0
  0
VERTEX
  5
629
  8
0
  6
CONTINUOUS
 62
     7
 10
2074.001356539302
 20
2638.397272444581
 30
0.0
  0
VERTEX
  5
62A
  8
0
  6
CONTINUOUS
 62
     7
 10
2073.992489660329
 20
2638.349141101304
 30
0.0
  0
VERTEX
  5
62B
  8
0
  6
CONTINUOUS
 62
     7
 10
2073.984420836016
 20
2638.300765286283
 30
0.0
  0
VERTEX
  5
62C
  8
0
  6
CONTINUOUS
 62
     7
 10
2073.977050309532
 20
2638.252175558486
 30
0.0
  0
VERTEX
  5
62D
  8
0
  6
CONTINUOUS
 62
     7
 10
2073.970278324043
 20
2638.203402476882
 30
0.0
  0
VERTEX
  5
62E
  8
0
  6
CONTINUOUS
 62
     7
 10
2073.964005122717
 20
2638.154476600438
 30
0.0
  0
VERTEX
  5
62F
  8
0
  6
CONTINUOUS
 62
     7
 10
2073.958130948722
 20
2638.105428488122
 30
0.0
  0
VERTEX
  5
630
  8
0
  6
CONTINUOUS
 62
     7
 10
2073.952556045224
 20
2638.056288698902
 30
0.0
  0
VERTEX
  5
631
  8
0
  6
CONTINUOUS
 62
     7
 10
2073.947180655392
 20
2638.007087791747
 30
0.0
  0
VERTEX
  5
632
  8
0
  6
CONTINUOUS
 62
     7
 10
2073.941905022391
 20
2637.957856325624
 30
0.0
  0
SEQEND
  5
686
  8
0
  6
CONTINUOUS
 62
     7
  0
LINE
  5
1A6
  8
0
  6
CONTINUOUS
 62
     7
 10
2091.941905022392
 20
2639.957856325617
 30
0.0
 11
2075.941905022392
 21
2639.957856325605
 31
0.0
  0
POLYLINE
  5
1A7
  8
0
  6
CONTINUOUS
 62
     7
 66
     1
 10
0.0
 20
0.0
 30
0.0
  0
VERTEX
  5
633
  8
0
  6
CONTINUOUS
 62
     7
 10
2093.941905022393
 20
2637.957856325607
 30
0.0
  0
VERTEX
  5
634
  8
0
  6
CONTINUOUS
 62
     7
 10
2093.936629792996
 20
2638.007087979422
 30
0.0
  0
VERTEX
  5
635
  8
0
  6
CONTINUOUS
 62
     7
 10
2093.93125479641
 20
2638.056289069453
 30
0.0
  0
VERTEX
  5
636
  8
0
  6
CONTINUOUS
 62
     7
 10
2093.925680265447
 20
2638.105429031916
 30
0.0
  0
VERTEX
  5
637
  8
0
  6
CONTINUOUS
 62
     7
 10
2093.919806432918
 20
2638.154477303027
 30
0.0
  0
VERTEX
  5
638
  8
0
  6
CONTINUOUS
 62
     7
 10
2093.913533531634
 20
2638.203403319003
 30
0.0
  0
VERTEX
  5
639
  8
0
  6
CONTINUOUS
 62
     7
 10
2093.906761794407
 20
2638.252176516059
 30
0.0
  0
VERTEX
  5
63A
  8
0
  6
CONTINUOUS
 62
     7
 10
2093.899391454048
 20
2638.300766330412
 30
0.0
  0
VERTEX
  5
63B
  8
0
  6
CONTINUOUS
 62
     7
 10
2093.891322743369
 20
2638.349142198276
 30
0.0
  0
VERTEX
  5
63C
  8
0
  6
CONTINUOUS
 62
     7
 10
2093.88245589518
 20
2638.39727355587
 30
0.0
  0
VERTEX
  5
63D
  8
0
  6
CONTINUOUS
 62
     7
 10
2093.872691142294
 20
2638.445129839409
 30
0.0
  0
VERTEX
  5
63E
  8
0
  6
CONTINUOUS
 62
     7
 10
2093.861928717522
 20
2638.492680485109
 30
0.0
  0
VERTEX
  5
63F
  8
0
  6
CONTINUOUS
 62
     7
 10
2093.850068853673
 20
2638.539894929185
 30
0.0
  0
VERTEX
  5
640
  8
0
  6
CONTINUOUS
 62
     7
 10
2093.837011783562
 20
2638.586742607855
 30
0.0
  0
VERTEX
  5
641
  8
0
  6
CONTINUOUS
 62
     7
 10
2093.822657739998
 20
2638.633192957334
 30
0.0
  0
VERTEX
  5
642
  8
0
  6
CONTINUOUS
 62
     7
 10
2093.806906955794
 20
2638.679215413838
 30
0.0
  0
VERTEX
  5
643
  8
0
  6
CONTINUOUS
 62
     7
 10
2093.789668561698
 20
2638.724779784946
 30
0.0
  0
VERTEX
  5
644
  8
0
  6
CONTINUOUS
 62
     7
 10
2093.770951825621
 20
2638.769860057542
 30
0.0
  0
VERTEX
  5
645
  8
0
  6
CONTINUOUS
 62
     7
 10
2093.750829086246
 20
2638.814432850822
 30
0.0
  0
VERTEX
  5
646
  8
0
  6
CONTINUOUS
 62
     7
 10
2093.729373666625
 20
2638.85847482506
 30
0.0
  0
VERTEX
  5
647
  8
0
  6
CONTINUOUS
 62
     7
 10
2093.706658889808
 20
2638.901962640536
 30
0.0
  0
VERTEX
  5
648
  8
0
  6
CONTINUOUS
 62
     7
 10
2093.682758078847
 20
2638.944872957527
 30
0.0
  0
VERTEX
  5
649
  8
0
  6
CONTINUOUS
 62
     7
 10
2093.657744556793
 20
2638.98718243631
 30
0.0
  0
VERTEX
  5
64A
  8
0
  6
CONTINUOUS
 62
     7
 10
2093.631691646697
 20
2639.028867737163
 30
0.0
  0
VERTEX
  5
64B
  8
0
  6
CONTINUOUS
 62
     7
 10
2093.604672224149
 20
2639.06990551853
 30
0.0
  0
VERTEX
  5
64C
  8
0
  6
CONTINUOUS
 62
     7
 10
2093.576734148106
 20
2639.110272336318
 30
0.0
  0
VERTEX
  5
64D
  8
0
  6
CONTINUOUS
 62
     7
 10
2093.547887519547
 20
2639.149944591682
 30
0.0
  0
VERTEX
  5
64E
  8
0
  6
CONTINUOUS
 62
     7
 10
2093.518139307557
 20
2639.188898672934
 30
0.0
  0
VERTEX
  5
64F
  8
0
  6
CONTINUOUS
 62
     7
 10
2093.487496481222
 20
2639.227110968391
 30
0.0
  0
VERTEX
  5
650
  8
0
  6
CONTINUOUS
 62
     7
 10
2093.455966009631
 20
2639.264557866367
 30
0.0
  0
VERTEX
  5
651
  8
0
  6
CONTINUOUS
 62
     7
 10
2093.42355486187
 20
2639.30121575518
 30
0.0
  0
VERTEX
  5
652
  8
0
  6
CONTINUOUS
 62
     7
 10
2093.390270007026
 20
2639.337061023144
 30
0.0
  0
VERTEX
  5
653
  8
0
  6
CONTINUOUS
 62
     7
 10
2093.356118414184
 20
2639.372070058573
 30
0.0
  0
VERTEX
  5
654
  8
0
  6
CONTINUOUS
 62
     7
 10
2093.321109821384
 20
2639.406222028598
 30
0.0
  0
VERTEX
  5
655
  8
0
  6
CONTINUOUS
 62
     7
 10
2093.285265042295
 20
2639.439507215452
 30
0.0
  0
VERTEX
  5
656
  8
0
  6
CONTINUOUS
 62
     7
 10
2093.248607659454
 20
2639.471918680095
 30
0.0
  0
VERTEX
  5
657
  8
0
  6
CONTINUOUS
 62
     7
 10
2093.211161255399
 20
2639.503449483492
 30
0.0
  0
VERTEX
  5
658
  8
0
  6
CONTINUOUS
 62
     7
 10
2093.17294941267
 20
2639.534092686607
 30
0.0
  0
VERTEX
  5
659
  8
0
  6
CONTINUOUS
 62
     7
 10
2093.133995713803
 20
2639.563841350403
 30
0.0
  0
VERTEX
  5
65A
  8
0
  6
CONTINUOUS
 62
     7
 10
2093.094323741336
 20
2639.592688535843
 30
0.0
  0
VERTEX
  5
65B
  8
0
  6
CONTINUOUS
 62
     7
 10
2093.053957077807
 20
2639.620627303891
 30
0.0
  0
VERTEX
  5
65C
  8
0
  6
CONTINUOUS
 62
     7
 10
2093.012919295163
 20
2639.647647426927
 30
0.0
  0
VERTEX
  5
65D
  8
0
  6
CONTINUOUS
 62
     7
 10
2092.971233842655
 20
2639.673700584203
 30
0.0
  0
VERTEX
  5
65E
  8
0
  6
CONTINUOUS
 62
     7
 10
2092.928924090588
 20
2639.698713943478
 30
0.0
  0
VERTEX
  5
65F
  8
0
  6
CONTINUOUS
 62
     7
 10
2092.886013407959
 20
2639.722614266885
 30
0.0
  0
VERTEX
  5
660
  8
0
  6
CONTINUOUS
 62
     7
 10
2092.842525163767
 20
2639.745328316556
 30
0.0
  0
VERTEX
  5
661
  8
0
  6
CONTINUOUS
 62
     7
 10
2092.798482727009
 20
2639.766782854625
 30
0.0
  0
VERTEX
  5
662
  8
0
  6
CONTINUOUS
 62
     7
 10
2092.753909466681
 20
2639.786904643223
 30
0.0
  0
VERTEX
  5
663
  8
0
  6
CONTINUOUS
 62
     7
 10
2092.708828751783
 20
2639.805620444485
 30
0.0
  0
VERTEX
  5
664
  8
0
  6
CONTINUOUS
 62
     7
 10
2092.663263992202
 20
2639.822858004368
 30
0.0
  0
VERTEX
  5
665
  8
0
  6
CONTINUOUS
 62
     7
 10
2092.617241217712
 20
2639.838608104789
 30
0.0
  0
VERTEX
  5
666
  8
0
  6
CONTINUOUS
 62
     7
 10
2092.57079061767
 20
2639.852961609555
 30
0.0
  0
VERTEX
  5
667
  8
0
  6
CONTINUOUS
 62
     7
 10
2092.523942751045
 20
2639.866018275497
 30
0.0
  0
VERTEX
  5
668
  8
0
  6
CONTINUOUS
 62
     7
 10
2092.476728176806
 20
2639.877877859448
 30
0.0
  0
VERTEX
  5
669
  8
0
  6
CONTINUOUS
 62
     7
 10
2092.429177453919
 20
2639.88864011824
 30
0.0
  0
VERTEX
  5
66A
  8
0
  6
CONTINUOUS
 62
     7
 10
2092.381321141352
 20
2639.898404808706
 30
0.0
  0
VERTEX
  5
66B
  8
0
  6
CONTINUOUS
 62
     7
 10
2092.333189798074
 20
2639.907271687679
 30
0.0
  0
VERTEX
  5
66C
  8
0
  6
CONTINUOUS
 62
     7
 10
2092.284813983053
 20
2639.915340511991
 30
0.0
  0
VERTEX
  5
66D
  8
0
  6
CONTINUOUS
 62
     7
 10
2092.236224255256
 20
2639.922711038476
 30
0.0
  0
VERTEX
  5
66E
  8
0
  6
CONTINUOUS
 62
     7
 10
2092.187451173651
 20
2639.929483023966
 30
0.0
  0
VERTEX
  5
66F
  8
0
  6
CONTINUOUS
 62
     7
 10
2092.138525297207
 20
2639.935756225292
 30
0.0
  0
VERTEX
  5
670
  8
0
  6
CONTINUOUS
 62
     7
 10
2092.089477184891
 20
2639.941630399287
 30
0.0
  0
VERTEX
  5
671
  8
0
  6
CONTINUOUS
 62
     7
 10
2092.040337395671
 20
2639.947205302784
 30
0.0
  0
VERTEX
  5
672
  8
0
  6
CONTINUOUS
 62
     7
 10
2091.991136488516
 20
2639.952580692617
 30
0.0
  0
VERTEX
  5
673
  8
0
  6
CONTINUOUS
 62
     7
 10
2091.941905022392
 20
2639.957856325617
 30
0.0
  0
SEQEND
  5
687
  8
0
  6
CONTINUOUS
 62
     7
  0
LINE
  5
1A8
  8
0
  6
CONTINUOUS
 62
     7
 10
2072.941905022391
 20
2637.757856325624
 30
0.0
 11
2072.941905022392
 21
2637.957856325624
 31
0.0
  0
LINE
  5
1A9
  8
0
  6
CONTINUOUS
 62
     7
 10
2072.941905022392
 20
2637.957856325624
 30
0.0
 11
2073.941905022391
 21
2637.957856325624
 31
0.0
  0
LINE
  5
1AA
  8
0
  6
CONTINUOUS
 62
     7
 10
2094.941905022393
 20
2637.757856325617
 30
0.0
 11
2094.941905022393
 21
2637.957856325617
 31
0.0
  0
LINE
  5
1AB
  8
0
  6
CONTINUOUS
 62
     7
 10
2093.941905022393
 20
2637.957856325607
 30
0.0
 11
2094.941905022393
 21
2637.957856325617
 31
0.0
  0
ARC
  5
1AC
  8
0
  6
CONTINUOUS
 62
     7
 10
2075.941905022391
 20
2637.957856325605
 30
0.0
 40
3.000000000000769
 50
129.9445051896106
 51
179.9999999996437
  0
ARC
  5
1AD
  8
0
  6
CONTINUOUS
 62
     7
 10
2091.941905022393
 20
2637.957856325616
 30
0.0
 40
3.0
 50
0.0000000000308642
 51
50.05549481008248
  0
LINE
  5
1AE
  8
0
  6
CONTINUOUS
 62
     7
 10
2072.941905022392
 20
2638.257856325623
 30
0.0
 11
2058.754230268599
 21
2638.257856325625
 31
0.0
  0
LINE
  5
1AF
  8
0
  6
CONTINUOUS
 62
     7
 10
2072.941905022391
 20
2637.957856325623
 30
0.0
 11
2072.941905022392
 21
2638.257856325623
 31
0.0
  0
LINE
  5
1B0
  8
0
  6
CONTINUOUS
 62
     7
 10
2058.754230268599
 20
2638.257856325625
 30
0.0
 11
2058.754230268599
 21
2637.757856325616
 31
0.0
  0
LINE
  5
1B1
  8
0
  6
CONTINUOUS
 62
     7
 10
2783.67805524297
 20
2640.257856325612
 30
0.0
 11
2783.724159954938
 21
2638.257856325603
 31
0.0
  0
LINE
  5
1B2
  8
0
  6
CONTINUOUS
 62
     7
 10
2785.024505326285
 20
2638.257856325604
 30
0.0
 11
2784.978400614318
 21
2640.257856325612
 31
0.0
  0
LINE
  5
1B3
  8
0
  6
CONTINUOUS
 62
     7
 10
2070.905409421785
 20
2640.257856325612
 30
0.0
 11
2070.859304709818
 21
2638.257856325617
 31
0.0
  0
LINE
  5
1B4
  8
0
  6
CONTINUOUS
 62
     7
 10
2072.159650081166
 20
2638.257856325616
 30
0.0
 11
2072.205754793134
 21
2640.257856325612
 31
0.0
  0
LINE
  5
1B5
  8
0
  6
CONTINUOUS
 62
     7
 10
2785.441905018051
 20
2769.757856325612
 30
0.0
 11
2070.441905018051
 21
2769.757856325612
 31
0.0
  0
LINE
  5
1B6
  8
0
  6
CONTINUOUS
 62
     7
 10
2785.441905018051
 20
2640.257856325612
 30
0.0
 11
2070.441905018051
 21
2640.257856325612
 31
0.0
  0
LINE
  5
1B7
  8
0
  6
CONTINUOUS
 62
     8
 10
2763.94190501371
 20
2639.957856325589
 30
0.0
 11
2763.94190501371
 21
2640.257856325612
 31
0.0
  0
LINE
  5
1B8
  8
0
  6
CONTINUOUS
 62
     8
 10
2779.941905013709
 20
2639.957856325583
 30
0.0
 11
2779.941905013709
 21
2640.257856325612
 31
0.0
  0
LINE
  5
1B9
  8
0
  6
CONTINUOUS
 62
     8
 10
2091.941905022392
 20
2639.957856325617
 30
0.0
 11
2091.941905022392
 21
2640.257856325612
 31
0.0
  0
LINE
  5
1BA
  8
0
  6
CONTINUOUS
 62
     8
 10
2075.941905022392
 20
2640.257856325612
 30
0.0
 11
2075.941905022392
 21
2639.957856325605
 31
0.0
  0
LINE
  5
1D1
  8
0
  6
CONTINUOUS
 62
     7
 10
2801.44190501805
 20
2622.757856325621
 30
0.0
 11
2429.44190501805
 21
2622.757856325621
 31
0.0
  0
LINE
  5
1D2
  8
0
  6
CONTINUOUS
 62
     7
 10
2801.44190501805
 20
2619.457856325621
 30
0.0
 11
2429.44190501805
 21
2619.457856325621
 31
0.0
  0
LINE
  5
1D3
  8
0
  6
CONTINUOUS
 62
     7
 10
2429.44190501805
 20
2619.457856325621
 30
0.0
 11
2429.44190501805
 21
2622.757856325621
 31
0.0
  0
LINE
  5
1D4
  8
0
  6
CONTINUOUS
 62
     7
 10
2801.44190501805
 20
2619.457856325621
 30
0.0
 11
2801.44190501805
 21
2622.757856325621
 31
0.0
  0
ENDSEC
  0
EOF
