  0
SECTION
  2
HEADER
  9
$ACADVER
  1
AC1006
  9
$DWGCODEPAGE
  3
ansi_932
  9
$INSBASE
 10
0.0
 20
0.0
 30
0.0
  9
$EXTMIN
 10
-118.8267423239377
 20
165.7088516276313
  9
$EXTMAX
 10
4839.484712179223
 20
3051.870698950108
  9
$LIMMIN
 10
0.0
 20
0.0
  9
$LIMMAX
 10
5000.0
 20
3500.0
  9
$ORTHOMODE
 70
     0
  9
$REGENMODE
 70
     1
  9
$FILLMODE
 70
     1
  9
$QTEXTMODE
 70
     0
  9
$MIRRTEXT
 70
     1
  9
$DRAGMODE
 70
     2
  9
$LTSCALE
 40
1.0
  9
$OSMODE
 70
    37
  9
$ATTMODE
 70
     1
  9
$TEXTSIZE
 40
3.5
  9
$TRACEWID
 40
1.0
  9
$TEXTSTYLE
  7
STANDARD
  9
$CLAYER
  8
0
  9
$CELTYPE
  6
BYLAYER
  9
$CECOLOR
 62
   256
  9
$DIMSCALE
 40
1.0
  9
$DIMASZ
 40
3.302
  9
$DIMEXO
 40
1.0
  9
$DIMDLI
 40
3.75
  9
$DIMRND
 40
0.0
  9
$DIMDLE
 40
0.0
  9
$DIMEXE
 40
1.0
  9
$DIMTP
 40
0.0
  9
$DIMTM
 40
0.0
  9
$DIMTXT
 40
3.5
  9
$DIMCEN
 40
2.5
  9
$DIMTSZ
 40
0.0
  9
$DIMTOL
 70
     0
  9
$DIMLIM
 70
     0
  9
$DIMTIH
 70
     1
  9
$DIMTOH
 70
     1
  9
$DIMSE1
 70
     0
  9
$DIMSE2
 70
     0
  9
$DIMTAD
 70
     1
  9
$DIMZIN
 70
     0
  9
$DIMBLK
  1

  9
$DIMASO
 70
     1
  9
$DIMSHO
 70
     1
  9
$DIMPOST
  1

  9
$DIMAPOST
  1

  9
$DIMALT
 70
     0
  9
$DIMALTD
 70
     3
  9
$DIMALTF
 40
0.0393700787401575
  9
$DIMLFAC
 40
1.0
  9
$DIMTOFL
 70
     1
  9
$DIMTVP
 40
0.0
  9
$DIMTIX
 70
     0
  9
$DIMSOXD
 70
     0
  9
$DIMSAH
 70
     0
  9
$DIMBLK1
  1

  9
$DIMBLK2
  1

  9
$LUNITS
 70
     2
  9
$LUPREC
 70
     2
  9
$SKETCHINC
 40
1.0
  9
$FILLETRAD
 40
10.0
  9
$AUNITS
 70
     0
  9
$AUPREC
 70
     2
  9
$MENU
  1
.
  9
$ELEVATION
 40
0.0
  9
$THICKNESS
 40
0.0
  9
$LIMCHECK
 70
     0
  9
$CHAMFERA
 40
0.0
  9
$CHAMFERB
 40
0.0
  9
$SKPOLY
 70
     0
  9
$TDCREATE
 40
2458989.165835683
  9
$TDUPDATE
 40
2460139.106121794
  9
$TDINDWG
 40
0.0019951505
  9
$TDUSRTIMER
 40
0.0019951505
  9
$USRTIMER
 70
     1
  9
$ANGBASE
 50
0.0
  9
$ANGDIR
 70
     0
  9
$PDMODE
 70
     0
  9
$PDSIZE
 40
-1.0
  9
$PLINEWID
 40
0.0
  9
$COORDS
 70
     1
  9
$SPLFRAME
 70
     0
  9
$SPLINETYPE
 70
     6
  9
$SPLINESEGS
 70
     8
  9
$ATTDIA
 70
     0
  9
$ATTREQ
 70
     1
  9
$HANDLING
 70
     1
  9
$HANDSEED
  5
17B
  9
$SURFTAB1
 70
     6
  9
$SURFTAB2
 70
     6
  9
$SURFTYPE
 70
     6
  9
$SURFU
 70
     6
  9
$SURFV
 70
     6
  9
$UCSNAME
  2

  9
$UCSORG
 10
0.0
 20
0.0
 30
0.0
  9
$UCSXDIR
 10
1.0
 20
0.0
 30
0.0
  9
$UCSYDIR
 10
0.0
 20
1.0
 30
0.0
  9
$USERI1
 70
     0
  9
$USERI2
 70
     0
  9
$USERI3
 70
     0
  9
$USERI4
 70
     0
  9
$USERI5
 70
     0
  9
$USERR1
 40
0.0
  9
$USERR2
 40
0.0
  9
$USERR3
 40
0.0
  9
$USERR4
 40
0.0
  9
$USERR5
 40
0.0
  9
$WORLDVIEW
 70
     1
  0
ENDSEC
  0
SECTION
  2
TABLES
  0
TABLE
  2
VPORT
 70
     1
  0
VPORT
  2
*ACTIVE
 70
     0
 10
0.0
 20
0.0
 11
1.0
 21
1.0
 12
2049.951901973263
 22
1653.723875417656
 13
0.0
 23
0.0
 14
10.0
 24
10.0
 15
10.0
 25
10.0
 16
0.0
 26
0.0
 36
1.0
 17
0.0
 27
0.0
 37
0.0
 40
4333.555692746504
 41
2.205282112845138
 42
50.0
 43
0.0
 44
0.0
 50
0.0
 51
0.0
 71
     0
 72
  2000
 73
     1
 74
     3
 75
     0
 76
     0
 77
     0
 78
     0
  0
ENDTAB
  0
TABLE
  2
LTYPE
 70
     6
  0
LTYPE
  2
CONTINUOUS
 70
     0
  3
Solid line
 72
    65
 73
     0
 40
0.0
  0
LTYPE
  2
HIDDEN
 70
     0
  3
Hidden __ __ __ __ __ __ __ __ __ __ __ __ __ __
 72
    65
 73
     2
 40
1.905
 49
1.27
 49
-0.635
  0
LTYPE
  2
PHANTOM
 70
     0
  3
Phantom ______  __  __  ______  __  __  ______
 72
    65
 73
     6
 40
12.7
 49
6.35
 49
-1.27
 49
1.27
 49
-1.27
 49
1.27
 49
-1.27
  0
LTYPE
  2
CENTER
 70
     0
  3
Center ____ _ ____ _ ____ _ ____ _ ____ _ ____
 72
    65
 73
     4
 40
10.16
 49
6.35
 49
-1.27
 49
1.27
 49
-1.27
  0
LTYPE
  2
CENTERX2
 70
     0
  3
Center (2x) ________  __  ________  __  _____
 72
    65
 73
     4
 40
20.32
 49
12.7
 49
-2.54
 49
2.54
 49
-2.54
  0
LTYPE
  2
DOT2
 70
     0
  3
Dot (.5x) ........................................
 72
    65
 73
     2
 40
0.635
 49
0.0
 49
-0.635
  0
ENDTAB
  0
TABLE
  2
LAYER
 70
     4
  0
LAYER
  2
0
 70
     0
 62
     7
  6
CONTINUOUS
  0
LAYER
  2
SLD-0
 70
     0
 62
   179
  6
CONTINUOUS
  0
LAYER
  2
寸法
 70
     0
 62
   179
  6
CONTINUOUS
  0
LAYER
  2
DEFPOINTS
 70
     0
 62
     7
  6
CONTINUOUS
  0
ENDTAB
  0
TABLE
  2
STYLE
 70
     2
  0
STYLE
  2
STANDARD
 70
     0
 40
0.0
 41
1.0
 50
0.0
 71
     0
 42
3.5
  3
txt
  4
bigfont
  0
STYLE
  2
SLDTEXTSTYLE0
 70
     0
 40
0.0
 41
0.75
 50
0.0
 71
     0
 42
3.5
  3
TXT
  4
bigfont
  0
ENDTAB
  0
TABLE
  2
VIEW
 70
     0
  0
ENDTAB
  0
TABLE
  2
UCS
 70
     0
  0
ENDTAB
  0
ENDSEC
  0
SECTION
  2
BLOCKS
  0
ENDSEC
  0
SECTION
  2
ENTITIES
  0
LINE
  5
75
  8
0
  6
CONTINUOUS
 62
     7
 10
4839.484712179223
 20
258.5233124172521
 30
0.0
 11
3312.374599790194
 21
258.5233124172519
 31
0.0
  0
TEXT
  5
77
  8
0
  6
CONTINUOUS
 62
     7
 10
1119.848624108153
 20
2998.954032283441
 30
0.0
 40
52.91666666666666
  1
＜上面＞
 41
0.75
  7
SLDTEXTSTYLE0
  0
TEXT
  5
78
  8
0
  6
CONTINUOUS
 62
     7
 10
340.4564745328014
 20
1797.422665617469
 30
0.0
 40
52.91666666666666
  1
＜左側面＞
 41
0.75
  7
SLDTEXTSTYLE0
  0
TEXT
  5
79
  8
0
  6
CONTINUOUS
 62
     7
 10
4126.609256655811
 20
1757.513364997604
 30
0.0
 40
52.91666666666666
  1
＜右側面＞
 41
0.75
  7
SLDTEXTSTYLE0
  0
TEXT
  5
7A
  8
0
  6
CONTINUOUS
 62
     7
 10
1119.848624108153
 20
1773.911538637322
 30
0.0
 40
52.91666666666666
  1
＜正面＞
 41
0.75
  7
SLDTEXTSTYLE0
  0
TEXT
  5
7B
  8
0
  6
CONTINUOUS
 62
     7
 10
3377.814243189123
 20
326.489054196763
 30
0.0
 40
52.91666666666666
  1
品名：
 41
0.75
  7
SLDTEXTSTYLE0
  0
TEXT
  5
7C
  8
0
  6
CONTINUOUS
 62
     7
 10
3596.719089054346
 20
326.4179256298013
 30
0.0
 40
66.14583333333331
  1
MA-DWSS220
 41
0.75
  7
SLDTEXTSTYLE0
  0
TEXT
  5
7D
  8
0
  6
CONTINUOUS
 62
     7
 10
4446.663437481703
 20
332.3177187478654
 30
0.0
 40
52.91666666666666
  1
Pamouna
 41
0.75
  7
SLDTEXTSTYLE0
  0
TEXT
  5
7E
  8
寸法
  6
CONTINUOUS
 62
     7
 10
4688.007304885427
 20
165.7088516276312
 30
0.0
 40
52.91666666666666
  1
1/1
 41
0.75
  7
SLDTEXTSTYLE0
  0
TEXT
  5
7F
  8
寸法
  6
CONTINUOUS
 62
     7
 10
4198.79693921183
 20
165.7088544215994
 30
0.0
 40
52.91666666666666
  1
2020/05/19
 41
0.75
  7
SLDTEXTSTYLE0
  0
LINE
  5
80
  8
0
  6
CONTINUOUS
 62
     7
 10
2241.015376368189
 20
1449.218235074518
 30
0.0
 11
1141.015376368189
 21
1449.218235074518
 31
0.0
  0
LINE
  5
81
  8
0
  6
CONTINUOUS
 62
     7
 10
2241.015376368189
 20
1364.218236562184
 30
0.0
 11
2241.015376368189
 21
1449.218235074518
 31
0.0
  0
LINE
  5
82
  8
0
  6
CONTINUOUS
 62
     7
 10
1141.015376368189
 20
1364.218236562184
 30
0.0
 11
2241.015376368189
 21
1364.218236562184
 31
0.0
  0
LINE
  5
83
  8
0
  6
CONTINUOUS
 62
     7
 10
1141.015376368189
 20
1449.218235074518
 30
0.0
 11
1141.015376368189
 21
1364.218236562184
 31
0.0
  0
LINE
  5
8E
  8
0
  6
CONTINUOUS
 62
     7
 10
2241.015376368188
 20
2602.941311745142
 30
0.0
 11
2241.015376368188
 21
2617.941311745142
 31
0.0
  0
LINE
  5
8F
  8
0
  6
CONTINUOUS
 62
     7
 10
2241.015376368188
 20
2602.941311745142
 30
0.0
 11
1141.015376368188
 21
2602.941311745142
 31
0.0
  0
LINE
  5
90
  8
0
  6
CONTINUOUS
 62
     7
 10
1141.015376368188
 20
2602.941311745142
 30
0.0
 11
1141.015376368188
 21
2617.941311745142
 31
0.0
  0
LINE
  5
91
  8
0
  6
CONTINUOUS
 62
     7
 10
2241.015376368188
 20
2617.941311745142
 30
0.0
 11
1141.015376368188
 21
2617.941311745142
 31
0.0
  0
LINE
  5
92
  8
0
  6
CONTINUOUS
 62
     7
 10
2241.015376368188
 20
2802.941311745142
 30
0.0
 11
1141.015376368188
 21
2802.941311745142
 31
0.0
  0
LINE
  5
93
  8
0
  6
CONTINUOUS
 62
     7
 10
2241.015376368188
 20
2817.941311745142
 30
0.0
 11
1141.015376368188
 21
2817.941311745142
 31
0.0
  0
LINE
  5
94
  8
0
  6
CONTINUOUS
 62
     7
 10
2241.015376368188
 20
2802.941311745142
 30
0.0
 11
2241.015376368188
 21
2817.941311745142
 31
0.0
  0
LINE
  5
95
  8
0
  6
CONTINUOUS
 62
     7
 10
1141.015376368188
 20
2802.941311745142
 30
0.0
 11
1141.015376368188
 21
2817.941311745142
 31
0.0
  0
LINE
  5
96
  8
0
  6
CONTINUOUS
 62
     7
 10
1683.515376368189
 20
2617.941311745142
 30
0.0
 11
1683.515376368189
 21
2802.941311745142
 31
0.0
  0
LINE
  5
97
  8
0
  6
CONTINUOUS
 62
     7
 10
1698.515376368189
 20
2617.941311745142
 30
0.0
 11
1698.515376368189
 21
2802.941311745142
 31
0.0
  0
LINE
  5
98
  8
0
  6
CONTINUOUS
 62
     7
 10
2240.015376368188
 20
2617.941311745142
 30
0.0
 11
2240.015376368188
 21
2802.941311745142
 31
0.0
  0
LINE
  5
99
  8
0
  6
CONTINUOUS
 62
     7
 10
2225.015376368188
 20
2617.941311745142
 30
0.0
 11
2225.015376368188
 21
2802.941311745142
 31
0.0
  0
LINE
  5
9A
  8
0
  6
CONTINUOUS
 62
     7
 10
1157.015376368188
 20
2617.941311745142
 30
0.0
 11
1157.015376368188
 21
2802.941311745142
 31
0.0
  0
LINE
  5
9B
  8
0
  6
CONTINUOUS
 62
     7
 10
1142.015376368188
 20
2617.941311745142
 30
0.0
 11
1142.015376368188
 21
2802.941311745142
 31
0.0
  0
LINE
  5
10E
  8
0
  6
CONTINUOUS
 62
     7
 10
3341.01537636819
 20
1449.218235074518
 30
0.0
 11
2241.015376368189
 21
1449.218235074518
 31
0.0
  0
LINE
  5
10F
  8
0
  6
CONTINUOUS
 62
     7
 10
3341.01537636819
 20
1364.218236562184
 30
0.0
 11
3341.01537636819
 21
1449.218235074518
 31
0.0
  0
LINE
  5
110
  8
0
  6
CONTINUOUS
 62
     7
 10
2241.015376368189
 20
1364.218236562184
 30
0.0
 11
3341.01537636819
 21
1364.218236562184
 31
0.0
  0
LINE
  5
111
  8
0
  6
CONTINUOUS
 62
     7
 10
2241.015376368189
 20
1449.218235074518
 30
0.0
 11
2241.015376368189
 21
1364.218236562184
 31
0.0
  0
LINE
  5
112
  8
0
  6
CONTINUOUS
 62
     7
 10
3341.015376368189
 20
2602.941311745142
 30
0.0
 11
3341.015376368189
 21
2617.941311745142
 31
0.0
  0
LINE
  5
113
  8
0
  6
CONTINUOUS
 62
     7
 10
3341.015376368189
 20
2602.941311745142
 30
0.0
 11
2241.015376368189
 21
2602.941311745142
 31
0.0
  0
LINE
  5
114
  8
0
  6
CONTINUOUS
 62
     7
 10
2241.015376368189
 20
2602.941311745142
 30
0.0
 11
2241.015376368189
 21
2617.941311745142
 31
0.0
  0
LINE
  5
115
  8
0
  6
CONTINUOUS
 62
     7
 10
3341.015376368189
 20
2617.941311745142
 30
0.0
 11
2241.015376368189
 21
2617.941311745142
 31
0.0
  0
LINE
  5
116
  8
0
  6
CONTINUOUS
 62
     7
 10
3341.015376368189
 20
2802.941311745142
 30
0.0
 11
2241.015376368189
 21
2802.941311745142
 31
0.0
  0
LINE
  5
117
  8
0
  6
CONTINUOUS
 62
     7
 10
3341.015376368189
 20
2817.941311745142
 30
0.0
 11
2241.015376368189
 21
2817.941311745142
 31
0.0
  0
LINE
  5
118
  8
0
  6
CONTINUOUS
 62
     7
 10
3341.015376368189
 20
2802.941311745142
 30
0.0
 11
3341.015376368189
 21
2817.941311745142
 31
0.0
  0
LINE
  5
119
  8
0
  6
CONTINUOUS
 62
     7
 10
2241.015376368189
 20
2802.941311745142
 30
0.0
 11
2241.015376368189
 21
2817.941311745142
 31
0.0
  0
LINE
  5
11A
  8
0
  6
CONTINUOUS
 62
     7
 10
2783.515376368189
 20
2617.941311745142
 30
0.0
 11
2783.515376368189
 21
2802.941311745142
 31
0.0
  0
LINE
  5
11B
  8
0
  6
CONTINUOUS
 62
     7
 10
2798.515376368189
 20
2617.941311745142
 30
0.0
 11
2798.515376368189
 21
2802.941311745142
 31
0.0
  0
LINE
  5
11C
  8
0
  6
CONTINUOUS
 62
     7
 10
3340.015376368189
 20
2617.941311745142
 30
0.0
 11
3340.015376368189
 21
2802.941311745142
 31
0.0
  0
LINE
  5
11D
  8
0
  6
CONTINUOUS
 62
     7
 10
3325.015376368189
 20
2617.941311745142
 30
0.0
 11
3325.015376368189
 21
2802.941311745142
 31
0.0
  0
LINE
  5
11E
  8
0
  6
CONTINUOUS
 62
     7
 10
2257.015376368189
 20
2617.941311745142
 30
0.0
 11
2257.015376368189
 21
2802.941311745142
 31
0.0
  0
LINE
  5
11F
  8
0
  6
CONTINUOUS
 62
     7
 10
2242.015376368189
 20
2617.941311745142
 30
0.0
 11
2242.015376368189
 21
2802.941311745142
 31
0.0
  0
LINE
  5
152
  8
0
  6
CONTINUOUS
 62
     7
 10
537.5105281790165
 20
1449.218235074518
 30
0.0
 11
522.5105281790168
 21
1449.218235074518
 31
0.0
  0
LINE
  5
153
  8
0
  6
CONTINUOUS
 62
     7
 10
537.5105281790165
 20
1449.218235074518
 30
0.0
 11
537.5105281790165
 21
1364.218235074518
 31
0.0
  0
LINE
  5
154
  8
0
  6
CONTINUOUS
 62
     7
 10
537.5105281790165
 20
1364.218235074518
 30
0.0
 11
522.5105281790168
 21
1364.218235074518
 31
0.0
  0
LINE
  5
155
  8
0
  6
CONTINUOUS
 62
     7
 10
522.5105281790168
 20
1449.218235074518
 30
0.0
 11
522.5105281790168
 21
1364.218235074518
 31
0.0
  0
LINE
  5
156
  8
0
  6
CONTINUOUS
 62
     7
 10
337.5105281790167
 20
1449.218235074518
 30
0.0
 11
337.5105281790167
 21
1364.218235074518
 31
0.0
  0
LINE
  5
157
  8
0
  6
CONTINUOUS
 62
     7
 10
337.5105281790167
 20
1449.218235074518
 30
0.0
 11
322.5105281790165
 21
1449.218235074518
 31
0.0
  0
LINE
  5
158
  8
0
  6
CONTINUOUS
 62
     7
 10
322.5105281790165
 20
1449.218235074518
 30
0.0
 11
322.5105281790165
 21
1364.218235074518
 31
0.0
  0
LINE
  5
159
  8
0
  6
CONTINUOUS
 62
     7
 10
337.5105281790167
 20
1364.218235074518
 30
0.0
 11
322.5105281790165
 21
1364.218235074518
 31
0.0
  0
LINE
  5
15A
  8
0
  6
CONTINUOUS
 62
     7
 10
522.5105281790168
 20
1448.718235074518
 30
0.0
 11
337.5105281790167
 21
1448.718235074518
 31
0.0
  0
LINE
  5
15B
  8
0
  6
CONTINUOUS
 62
     7
 10
522.5105281790168
 20
1364.218235074518
 30
0.0
 11
337.5105281790167
 21
1364.218235074518
 31
0.0
  0
LINE
  5
15C
  8
0
  6
CONTINUOUS
 62
     7
 10
4127.766013883474
 20
1456.498237396962
 30
0.0
 11
4142.766013883474
 21
1456.498237396962
 31
0.0
  0
LINE
  5
15D
  8
0
  6
CONTINUOUS
 62
     7
 10
4127.766013883474
 20
1371.498237396962
 30
0.0
 11
4142.766013883474
 21
1371.498237396962
 31
0.0
  0
LINE
  5
15E
  8
0
  6
CONTINUOUS
 62
     7
 10
4127.766013883474
 20
1371.498237396962
 30
0.0
 11
4127.766013883474
 21
1456.498237396962
 31
0.0
  0
LINE
  5
15F
  8
0
  6
CONTINUOUS
 62
     7
 10
4142.766013883474
 20
1371.498237396962
 30
0.0
 11
4142.766013883474
 21
1456.498237396962
 31
0.0
  0
LINE
  5
160
  8
0
  6
CONTINUOUS
 62
     7
 10
4327.766013883474
 20
1371.498237396962
 30
0.0
 11
4327.766013883474
 21
1456.498237396962
 31
0.0
  0
LINE
  5
161
  8
0
  6
CONTINUOUS
 62
     7
 10
4327.766013883474
 20
1456.498237396962
 30
0.0
 11
4342.766013883474
 21
1456.498237396962
 31
0.0
  0
LINE
  5
162
  8
0
  6
CONTINUOUS
 62
     7
 10
4342.766013883474
 20
1371.498237396962
 30
0.0
 11
4342.766013883474
 21
1456.498237396962
 31
0.0
  0
LINE
  5
163
  8
0
  6
CONTINUOUS
 62
     7
 10
4327.766013883474
 20
1371.498237396962
 30
0.0
 11
4342.766013883474
 21
1371.498237396962
 31
0.0
  0
LINE
  5
164
  8
0
  6
CONTINUOUS
 62
     7
 10
4142.766013883474
 20
1455.998237396962
 30
0.0
 11
4327.766013883474
 21
1455.998237396962
 31
0.0
  0
LINE
  5
165
  8
0
  6
CONTINUOUS
 62
     7
 10
4142.766013883474
 20
1371.498237396962
 30
0.0
 11
4327.766013883474
 21
1371.498237396962
 31
0.0
  0
ENDSEC
  0
EOF
