  0
SECTION
  2
HEADER
  9
$ACADVER
  1
AC1006
  9
$DWGCODEPAGE
  3
dos932
  9
$INSBASE
 10
0.0
 20
0.0
 30
0.0
  9
$EXTMIN
 10
0.0
 20
0.0
  9
$EXTMAX
 10
5000.0
 20
3500.0
  9
$LIMMIN
 10
0.0
 20
0.0
  9
$LIMMAX
 10
5000.0
 20
3500.0
  9
$ORTHOMODE
 70
     0
  9
$REGENMODE
 70
     1
  9
$FILLMODE
 70
     1
  9
$QTEXTMODE
 70
     0
  9
$MIRRTEXT
 70
     1
  9
$DRAGMODE
 70
     2
  9
$LTSCALE
 40
1.0
  9
$OSMODE
 70
    37
  9
$ATTMODE
 70
     1
  9
$TEXTSIZE
 40
3.5
  9
$TRACEWID
 40
1.0
  9
$TEXTSTYLE
  7
STANDARD
  9
$CLAYER
  8
0
  9
$CELTYPE
  6
BYLAYER
  9
$CECOLOR
 62
   256
  9
$DIMSCALE
 40
1.0
  9
$DIMASZ
 40
3.302
  9
$DIMEXO
 40
1.0
  9
$DIMDLI
 40
3.75
  9
$DIMRND
 40
0.0
  9
$DIMDLE
 40
0.0
  9
$DIMEXE
 40
1.0
  9
$DIMTP
 40
0.0
  9
$DIMTM
 40
0.0
  9
$DIMTXT
 40
3.5
  9
$DIMCEN
 40
2.5
  9
$DIMTSZ
 40
0.0
  9
$DIMTOL
 70
     0
  9
$DIMLIM
 70
     0
  9
$DIMTIH
 70
     1
  9
$DIMTOH
 70
     1
  9
$DIMSE1
 70
     0
  9
$DIMSE2
 70
     0
  9
$DIMTAD
 70
     1
  9
$DIMZIN
 70
     0
  9
$DIMBLK
  1

  9
$DIMASO
 70
     1
  9
$DIMSHO
 70
     1
  9
$DIMPOST
  1

  9
$DIMAPOST
  1

  9
$DIMALT
 70
     0
  9
$DIMALTD
 70
     3
  9
$DIMALTF
 40
0.0393700787401575
  9
$DIMLFAC
 40
1.0
  9
$DIMTOFL
 70
     1
  9
$DIMTVP
 40
0.0
  9
$DIMTIX
 70
     0
  9
$DIMSOXD
 70
     0
  9
$DIMSAH
 70
     0
  9
$DIMBLK1
  1

  9
$DIMBLK2
  1

  9
$LUNITS
 70
     2
  9
$LUPREC
 70
     3
  9
$SKETCHINC
 40
1.0
  9
$FILLETRAD
 40
10.0
  9
$AUNITS
 70
     0
  9
$AUPREC
 70
     2
  9
$MENU
  1
.
  9
$ELEVATION
 40
0.0
  9
$THICKNESS
 40
0.0
  9
$LIMCHECK
 70
     0
  9
$CHAMFERA
 40
0.0
  9
$CHAMFERB
 40
0.0
  9
$SKPOLY
 70
     0
  9
$TDCREATE
 40
2459796.286387095
  9
$TDUPDATE
 40
2460140.154016053
  9
$TDINDWG
 40
0.0000000116
  9
$TDUSRTIMER
 40
0.0000000116
  9
$USRTIMER
 70
     1
  9
$ANGBASE
 50
0.0
  9
$ANGDIR
 70
     0
  9
$PDMODE
 70
     0
  9
$PDSIZE
 40
-1.0
  9
$PLINEWID
 40
0.0
  9
$COORDS
 70
     1
  9
$SPLFRAME
 70
     0
  9
$SPLINETYPE
 70
     6
  9
$SPLINESEGS
 70
     8
  9
$ATTDIA
 70
     0
  9
$ATTREQ
 70
     1
  9
$HANDLING
 70
     1
  9
$HANDSEED
  5
18D
  9
$SURFTAB1
 70
     6
  9
$SURFTAB2
 70
     6
  9
$SURFTYPE
 70
     6
  9
$SURFU
 70
     6
  9
$SURFV
 70
     6
  9
$UCSNAME
  2

  9
$UCSORG
 10
0.0
 20
0.0
 30
0.0
  9
$UCSXDIR
 10
1.0
 20
0.0
 30
0.0
  9
$UCSYDIR
 10
0.0
 20
1.0
 30
0.0
  9
$USERI1
 70
     0
  9
$USERI2
 70
     0
  9
$USERI3
 70
     0
  9
$USERI4
 70
     0
  9
$USERI5
 70
     0
  9
$USERR1
 40
0.0
  9
$USERR2
 40
0.0
  9
$USERR3
 40
0.0
  9
$USERR4
 40
0.0
  9
$USERR5
 40
0.0
  9
$WORLDVIEW
 70
     1
  0
ENDSEC
  0
SECTION
  2
TABLES
  0
TABLE
  2
VPORT
 70
     1
  0
VPORT
  2
*ACTIVE
 70
     0
 10
0.0
 20
0.0
 11
1.0
 21
1.0
 12
2500.0
 22
1750.0
 13
0.0
 23
0.0
 14
10.0
 24
10.0
 15
10.0
 25
10.0
 16
0.0
 26
0.0
 36
1.0
 17
0.0
 27
0.0
 37
0.0
 40
3500.0
 41
1.428571428571429
 42
50.0
 43
0.0
 44
0.0
 50
0.0
 51
0.0
 71
     0
 72
  2000
 73
     1
 74
     3
 75
     0
 76
     0
 77
     0
 78
     0
  0
ENDTAB
  0
TABLE
  2
LTYPE
 70
     6
  0
LTYPE
  2
CONTINUOUS
 70
     0
  3
Solid line
 72
    65
 73
     0
 40
0.0
  0
LTYPE
  2
HIDDEN
 70
     0
  3
Hidden __ __ __ __ __ __ __ __ __ __ __ __ __ __
 72
    65
 73
     2
 40
1.905
 49
1.27
 49
-0.635
  0
LTYPE
  2
PHANTOM
 70
     0
  3
Phantom ______  __  __  ______  __  __  ______
 72
    65
 73
     6
 40
12.7
 49
6.35
 49
-1.27
 49
1.27
 49
-1.27
 49
1.27
 49
-1.27
  0
LTYPE
  2
CENTER
 70
     0
  3
Center ____ _ ____ _ ____ _ ____ _ ____ _ ____
 72
    65
 73
     4
 40
10.16
 49
6.35
 49
-1.27
 49
1.27
 49
-1.27
  0
LTYPE
  2
CENTERX2
 70
     0
  3
Center (2x) ________  __  ________  __  _____
 72
    65
 73
     4
 40
20.32
 49
12.7
 49
-2.54
 49
2.54
 49
-2.54
  0
LTYPE
  2
DOT2
 70
     0
  3
Dot (.5x) ........................................
 72
    65
 73
     2
 40
0.635
 49
0.0
 49
-0.635
  0
ENDTAB
  0
TABLE
  2
LAYER
 70
     3
  0
LAYER
  2
0
 70
     0
 62
     7
  6
CONTINUOUS
  0
LAYER
  2
SLD-0
 70
     0
 62
   179
  6
CONTINUOUS
  0
LAYER
  2
寸法
 70
     0
 62
   179
  6
CONTINUOUS
  0
ENDTAB
  0
TABLE
  2
STYLE
 70
     2
  0
STYLE
  2
STANDARD
 70
     0
 40
0.0
 41
1.0
 50
0.0
 71
     0
 42
3.5
  3
txt
  4
bigfont
  0
STYLE
  2
SLDTEXTSTYLE0
 70
     0
 40
0.0
 41
0.75
 50
0.0
 71
     0
 42
3.5
  3
TXT
  4
bigfont
  0
ENDTAB
  0
TABLE
  2
VIEW
 70
     0
  0
ENDTAB
  0
TABLE
  2
UCS
 70
     0
  0
ENDTAB
  0
ENDSEC
  0
SECTION
  2
BLOCKS
  0
ENDSEC
  0
SECTION
  2
ENTITIES
  0
LINE
  5
75
  8
0
  6
CONTINUOUS
 62
     7
 10
4839.484712179223
 20
258.5233124172521
 30
0.0
 11
3312.374599790194
 21
258.5233124172519
 31
0.0
  0
TEXT
  5
77
  8
0
  6
CONTINUOUS
 62
     7
 10
1349.066667345787
 20
3310.093533840326
 30
0.0
 40
52.91666666666666
  1
＜上面＞
 41
0.75
  7
SLDTEXTSTYLE0
  0
TEXT
  5
78
  8
0
  6
CONTINUOUS
 62
     7
 10
355.8266146156568
 20
2339.567159245636
 30
0.0
 40
52.91666666666666
  1
＜左側面＞
 41
0.75
  7
SLDTEXTSTYLE0
  0
TEXT
  5
79
  8
0
  6
CONTINUOUS
 62
     7
 10
1354.565967118321
 20
2339.567159245637
 30
0.0
 40
52.91666666666666
  1
＜正面＞
 41
0.75
  7
SLDTEXTSTYLE0
  0
TEXT
  5
7A
  8
0
  6
CONTINUOUS
 62
     7
 10
3377.814243189123
 20
326.489054196763
 30
0.0
 40
52.91666666666666
  1
品名：
 41
0.75
  7
SLDTEXTSTYLE0
  0
TEXT
  5
7B
  8
0
  6
CONTINUOUS
 62
     7
 10
4446.663437481703
 20
332.3177187478654
 30
0.0
 40
52.91666666666666
  1
Pamouna
 41
0.75
  7
SLDTEXTSTYLE0
  0
TEXT
  5
7C
  8
寸法
  6
CONTINUOUS
 62
     7
 10
4688.007304885427
 20
165.7088516276312
 30
0.0
 40
52.91666666666666
  1
1/1
 41
0.75
  7
SLDTEXTSTYLE0
  0
TEXT
  5
7D
  8
寸法
  6
CONTINUOUS
 62
     7
 10
4198.79693921183
 20
165.7088544215994
 30
0.0
 40
52.91666666666666
  1
2022/08/04
 41
0.75
  7
SLDTEXTSTYLE0
  0
TEXT
  5
7E
  8
寸法
  6
CONTINUOUS
 62
     7
 10
1350.030342332502
 20
1137.89215271946
 30
0.0
 40
52.91666666666666
  1
＜背面＞
 41
0.75
  7
SLDTEXTSTYLE0
  0
TEXT
  5
7F
  8
寸法
  6
CONTINUOUS
 62
     7
 10
3611.283129349215
 20
326.4179237671586
 30
0.0
 40
66.14583333333331
  1
MA-180DL（-T）
 41
0.75
  7
SLDTEXTSTYLE0
  0
TEXT
  5
80
  8
寸法
  6
CONTINUOUS
 62
     7
 10
3746.752415614053
 20
2339.567159245637
 30
0.0
 40
52.91666666666666
  1
＜右側面＞
 41
0.75
  7
SLDTEXTSTYLE0
  0
LINE
  5
81
  8
0
  6
CONTINUOUS
 62
     7
 10
1392.151505540359
 20
1469.42067465202
 30
0.0
 11
1392.151505540359
 21
1479.42067465202
 31
0.0
  0
LINE
  5
82
  8
0
  6
CONTINUOUS
 62
     7
 10
1367.151505540359
 20
1479.42067465202
 30
0.0
 11
1367.151505540359
 21
1469.42067465202
 31
0.0
  0
LINE
  5
83
  8
0
  6
CONTINUOUS
 62
     7
 10
2980.651505540347
 20
2169.42067465204
 30
0.0
 11
2980.651505540347
 21
2164.92067465204
 31
0.0
  0
LINE
  5
84
  8
0
  6
CONTINUOUS
 62
     7
 10
2975.651505540347
 20
2164.92067465204
 30
0.0
 11
2975.651505540347
 21
2169.42067465204
 31
0.0
  0
LINE
  5
85
  8
0
  6
CONTINUOUS
 62
     7
 10
2980.651505540347
 20
2164.92067465204
 30
0.0
 11
2975.651505540347
 21
2164.92067465204
 31
0.0
  0
LINE
  5
86
  8
0
  6
CONTINUOUS
 62
     7
 10
3005.651505540347
 20
2169.42067465204
 30
0.0
 11
3005.651505540347
 21
2164.92067465204
 31
0.0
  0
LINE
  5
87
  8
0
  6
CONTINUOUS
 62
     7
 10
3000.651505540347
 20
2164.92067465204
 30
0.0
 11
3000.651505540347
 21
2169.42067465204
 31
0.0
  0
LINE
  5
88
  8
0
  6
CONTINUOUS
 62
     7
 10
3005.651505540347
 20
2164.92067465204
 30
0.0
 11
3000.651505540347
 21
2164.92067465204
 31
0.0
  0
LINE
  5
89
  8
0
  6
CONTINUOUS
 62
     7
 10
3000.651505540347
 20
2164.92067465204
 30
0.0
 11
2980.651505540347
 21
2164.92067465204
 31
0.0
  0
LINE
  5
8A
  8
0
  6
CONTINUOUS
 62
     7
 10
1366.651505540401
 20
2169.420674652031
 30
0.0
 11
3164.651505540401
 21
2169.420674652031
 31
0.0
  0
LINE
  5
8B
  8
0
  6
CONTINUOUS
 62
     7
 10
1366.651505540401
 20
2197.420674652031
 30
0.0
 11
3164.651505540401
 21
2197.420674652031
 31
0.0
  0
LINE
  5
8C
  8
0
  6
CONTINUOUS
 62
     7
 10
3164.651505540401
 20
2197.420674652031
 30
0.0
 11
3164.651505540401
 21
2169.420674652031
 31
0.0
  0
LINE
  5
8D
  8
0
  6
CONTINUOUS
 62
     7
 10
1366.651505540401
 20
2197.420674652031
 30
0.0
 11
1366.651505540401
 21
2169.420674652031
 31
0.0
  0
LINE
  5
8E
  8
0
  6
CONTINUOUS
 62
     7
 10
3164.651505540401
 20
2197.420674652031
 30
0.0
 11
3165.651505540401
 21
2197.420674652031
 31
0.0
  0
LINE
  5
8F
  8
0
  6
CONTINUOUS
 62
     7
 10
3165.651505540401
 20
2197.420674652031
 30
0.0
 11
3165.651505540401
 21
2169.420674652031
 31
0.0
  0
LINE
  5
90
  8
0
  6
CONTINUOUS
 62
     7
 10
3165.651505540401
 20
2169.420674652031
 30
0.0
 11
3164.651505540401
 21
2169.420674652031
 31
0.0
  0
LINE
  5
91
  8
0
  6
CONTINUOUS
 62
     7
 10
1366.651505540401
 20
2169.420674652031
 30
0.0
 11
1365.651505540401
 21
2169.420674652031
 31
0.0
  0
LINE
  5
92
  8
0
  6
CONTINUOUS
 62
     7
 10
1365.651505540401
 20
2169.420674652031
 30
0.0
 11
1365.651505540401
 21
2197.420674652031
 31
0.0
  0
LINE
  5
93
  8
0
  6
CONTINUOUS
 62
     7
 10
1365.651505540401
 20
2197.420674652031
 30
0.0
 11
1366.651505540401
 21
2197.420674652031
 31
0.0
  0
LINE
  5
94
  8
0
  6
CONTINUOUS
 62
     7
 10
2815.651505540347
 20
2169.420674652017
 30
0.0
 11
2815.651505540347
 21
2164.920674652017
 31
0.0
  0
LINE
  5
95
  8
0
  6
CONTINUOUS
 62
     7
 10
2807.651505540347
 20
2164.920674652017
 30
0.0
 11
2807.651505540347
 21
2169.420674652017
 31
0.0
  0
LINE
  5
96
  8
0
  6
CONTINUOUS
 62
     7
 10
1523.651505540347
 20
2169.420674652017
 30
0.0
 11
1523.651505540347
 21
2164.920674652017
 31
0.0
  0
LINE
  5
97
  8
0
  6
CONTINUOUS
 62
     7
 10
1515.651505540347
 20
2164.920674652017
 30
0.0
 11
1515.651505540347
 21
2169.420674652017
 31
0.0
  0
LINE
  5
98
  8
0
  6
CONTINUOUS
 62
     7
 10
1394.151505540347
 20
2164.420674652034
 30
0.0
 11
3163.651505540347
 21
2164.420674652034
 31
0.0
  0
LINE
  5
99
  8
0
  6
CONTINUOUS
 62
     7
 10
3163.651505540345
 20
1920.420674652035
 30
0.0
 11
3163.651505540347
 21
2164.420674652034
 31
0.0
  0
LINE
  5
9A
  8
0
  6
CONTINUOUS
 62
     7
 10
1394.151505540345
 20
1920.420674652034
 30
0.0
 11
3163.651505540345
 21
1920.420674652035
 31
0.0
  0
LINE
  5
9B
  8
0
  6
CONTINUOUS
 62
     7
 10
1394.151505540345
 20
1920.420674652034
 30
0.0
 11
1394.151505540347
 21
2164.420674652034
 31
0.0
  0
LINE
  5
9C
  8
0
  6
CONTINUOUS
 62
     7
 10
3163.651505540347
 20
2164.920674652034
 30
0.0
 11
3163.651505540347
 21
2164.420674652034
 31
0.0
  0
LINE
  5
9D
  8
0
  6
CONTINUOUS
 62
     7
 10
1394.151505540347
 20
2164.920674652034
 30
0.0
 11
2975.651505540347
 21
2164.920674652034
 31
0.0
  0
LINE
  5
9E
  8
0
  6
CONTINUOUS
 62
     7
 10
3005.651505540347
 20
2164.920674652034
 30
0.0
 11
3163.651505540347
 21
2164.920674652034
 31
0.0
  0
LINE
  5
9F
  8
0
  6
CONTINUOUS
 62
     7
 10
1394.151505540347
 20
2164.920674652034
 30
0.0
 11
1394.151505540347
 21
2164.420674652034
 31
0.0
  0
LINE
  5
A0
  8
0
  6
CONTINUOUS
 62
     7
 10
1393.651505540347
 20
2164.920674652034
 30
0.0
 11
1394.151505540347
 21
2164.920674652034
 31
0.0
  0
LINE
  5
A1
  8
0
  6
CONTINUOUS
 62
     7
 10
1393.651505540345
 20
1920.420674652034
 30
0.0
 11
1394.151505540345
 21
1920.420674652034
 31
0.0
  0
LINE
  5
A2
  8
0
  6
CONTINUOUS
 62
     7
 10
1394.151505540345
 20
1920.420674652034
 30
0.0
 11
1394.151505540347
 21
2164.920674652034
 31
0.0
  0
LINE
  5
A3
  8
0
  6
CONTINUOUS
 62
     7
 10
1367.151505540359
 20
1469.42067465202
 30
0.0
 11
1392.151505540359
 21
1469.42067465202
 31
0.0
  0
LINE
  5
A4
  8
0
  6
CONTINUOUS
 62
     7
 10
1365.651505540345
 20
1479.420674652017
 30
0.0
 11
1393.651505540345
 21
1479.420674652017
 31
0.0
  0
LINE
  5
A5
  8
0
  6
CONTINUOUS
 62
     7
 10
1393.651505540345
 20
1479.420674652017
 30
0.0
 11
1393.651505540343
 21
2169.420674652017
 31
0.0
  0
LINE
  5
A6
  8
0
  6
CONTINUOUS
 62
     7
 10
1365.651505540345
 20
1479.420674652017
 30
0.0
 11
1365.651505540343
 21
2169.420674652017
 31
0.0
  0
LINE
  5
A7
  8
0
  6
CONTINUOUS
 62
     7
 10
701.2985612237284
 20
1469.42067465202
 30
0.0
 11
701.2985612237284
 21
1479.42067465202
 31
0.0
  0
LINE
  5
A8
  8
0
  6
CONTINUOUS
 62
     7
 10
676.2985612237284
 20
1479.42067465202
 30
0.0
 11
676.2985612237284
 21
1469.42067465202
 31
0.0
  0
LINE
  5
A9
  8
0
  6
CONTINUOUS
 62
     7
 10
389.2985612237284
 20
1469.42067465202
 30
0.0
 11
389.2985612237284
 21
1479.42067465202
 31
0.0
  0
LINE
  5
AA
  8
0
  6
CONTINUOUS
 62
     7
 10
364.2985612237284
 20
1479.42067465202
 30
0.0
 11
364.2985612237284
 21
1469.42067465202
 31
0.0
  0
LINE
  5
AB
  8
0
  6
CONTINUOUS
 62
     7
 10
721.2985612248312
 20
2169.420674652031
 30
0.0
 11
721.2985612248312
 21
2197.420674652031
 31
0.0
  0
LINE
  5
AC
  8
0
  6
CONTINUOUS
 62
     7
 10
721.2985612248312
 20
2169.420674652031
 30
0.0
 11
321.2985612248313
 21
2169.420674652031
 31
0.0
  0
LINE
  5
AD
  8
0
  6
CONTINUOUS
 62
     7
 10
321.2985612248313
 20
2169.420674652031
 30
0.0
 11
321.2985612248313
 21
2197.420674652031
 31
0.0
  0
LINE
  5
AE
  8
0
  6
CONTINUOUS
 62
     7
 10
721.2985612248312
 20
2197.420674652031
 30
0.0
 11
321.2985612248313
 21
2197.420674652031
 31
0.0
  0
LINE
  5
AF
  8
0
  6
CONTINUOUS
 62
     7
 10
684.3181857700814
 20
1469.42067465202
 30
0.0
 11
701.2985612237284
 21
1469.42067465202
 31
0.0
  0
LINE
  5
B0
  8
0
  6
CONTINUOUS
 62
     7
 10
676.2985612237284
 20
1469.42067465202
 30
0.0
 11
684.3181857700814
 21
1469.42067465202
 31
0.0
  0
LINE
  5
B1
  8
0
  6
CONTINUOUS
 62
     7
 10
364.2985612237284
 20
1469.42067465202
 30
0.0
 11
389.2985612237284
 21
1469.42067465202
 31
0.0
  0
CIRCLE
  5
B2
  8
0
  6
CONTINUOUS
 62
     7
 10
369.7985612248308
 20
2105.420674652017
 30
0.0
 40
1.500000048000004
  0
CIRCLE
  5
B3
  8
0
  6
CONTINUOUS
 62
     7
 10
369.7985612248308
 20
1977.420674652017
 30
0.0
 40
1.500000048000004
  0
LINE
  5
B4
  8
0
  6
CONTINUOUS
 62
     7
 10
321.2985612248308
 20
1599.378989885144
 30
0.0
 11
321.2985612248308
 21
2169.420674652017
 31
0.0
  0
LINE
  5
B5
  8
0
  6
CONTINUOUS
 62
     7
 10
321.2985612248308
 20
2169.420674652017
 30
0.0
 11
719.7985612248278
 21
2169.420674652017
 31
0.0
  0
LINE
  5
B6
  8
0
  6
CONTINUOUS
 62
     7
 10
719.7985612248278
 20
1479.420674652017
 30
0.0
 11
719.7985612248278
 21
2169.420674652017
 31
0.0
  0
LINE
  5
B7
  8
0
  6
CONTINUOUS
 62
     7
 10
331.2985612248308
 20
1479.420674652017
 30
0.0
 11
719.7985612248278
 21
1479.420674652017
 31
0.0
  0
LINE
  5
B8
  8
0
  6
CONTINUOUS
 62
     7
 10
331.2985612248308
 20
1479.420674652017
 30
0.0
 11
331.2985612248308
 21
1551.420674652017
 31
0.0
  0
ARC
  5
B9
  8
0
  6
CONTINUOUS
 62
     7
 10
211.298561224834
 20
1551.420674652017
 30
0.0
 40
119.9999999999972
 50
0.0
 51
23.55646430910195
  0
CIRCLE
  5
BA
  8
0
  6
CONTINUOUS
 62
     7
 10
369.7985612248308
 20
2105.420674652017
 30
0.0
 40
5.000000032999992
  0
CIRCLE
  5
BB
  8
0
  6
CONTINUOUS
 62
     7
 10
369.7985612248308
 20
1977.420674652017
 30
0.0
 40
5.000000032999935
  0
LINE
  5
BC
  8
0
  6
CONTINUOUS
 62
     7
 10
368.298561224831
 20
2110.190370693698
 30
0.0
 11
368.298561224831
 21
2100.650978610342
 31
0.0
  0
LINE
  5
BD
  8
0
  6
CONTINUOUS
 62
     7
 10
368.298561224831
 20
1982.190370693698
 30
0.0
 11
368.298561224831
 21
1972.650978610342
 31
0.0
  0
LINE
  5
BE
  8
0
  6
CONTINUOUS
 62
     7
 10
720.7985612248277
 20
1479.420674652017
 30
0.0
 11
720.7985612248277
 21
2169.420674652017
 31
0.0
  0
LINE
  5
BF
  8
0
  6
CONTINUOUS
 62
     7
 10
719.7985612248278
 20
1479.420674652017
 30
0.0
 11
720.7985612248277
 21
1479.420674652017
 31
0.0
  0
LINE
  5
C0
  8
0
  6
CONTINUOUS
 62
     7
 10
719.7985612248278
 20
2169.420674652017
 30
0.0
 11
720.7985612248277
 21
2169.420674652017
 31
0.0
  0
LINE
  5
C1
  8
0
  6
CONTINUOUS
 62
     7
 10
3946.342713145731
 20
1469.42067465202
 30
0.0
 11
3946.342713145731
 21
1479.42067465202
 31
0.0
  0
LINE
  5
C2
  8
0
  6
CONTINUOUS
 62
     7
 10
3921.342713145731
 20
1479.42067465202
 30
0.0
 11
3921.342713145731
 21
1469.42067465202
 31
0.0
  0
LINE
  5
C3
  8
0
  6
CONTINUOUS
 62
     7
 10
4258.342713145731
 20
1469.42067465202
 30
0.0
 11
4258.342713145731
 21
1479.42067465202
 31
0.0
  0
LINE
  5
C4
  8
0
  6
CONTINUOUS
 62
     7
 10
4233.34271314573
 20
1479.42067465202
 30
0.0
 11
4233.34271314573
 21
1469.42067465202
 31
0.0
  0
LINE
  5
C5
  8
0
  6
CONTINUOUS
 62
     7
 10
4296.842713144629
 20
1934.42067465204
 30
0.0
 11
4301.342713144628
 21
1934.42067465204
 31
0.0
  0
LINE
  5
C6
  8
0
  6
CONTINUOUS
 62
     7
 10
4296.842713144629
 20
2164.92067465204
 30
0.0
 11
4296.842713144629
 21
1943.420674652033
 31
0.0
  0
LINE
  5
C7
  8
0
  6
CONTINUOUS
 62
     7
 10
4006.342713144628
 20
2164.92067465204
 30
0.0
 11
4238.842713144633
 21
2164.92067465204
 31
0.0
  0
LINE
  5
C8
  8
0
  6
CONTINUOUS
 62
     7
 10
4256.842713144627
 20
2164.92067465204
 30
0.0
 11
4296.842713144629
 21
2164.92067465204
 31
0.0
  0
LINE
  5
C9
  8
0
  6
CONTINUOUS
 62
     7
 10
4006.342713144628
 20
2169.42067465204
 30
0.0
 11
4006.342713144628
 21
2164.92067465204
 31
0.0
  0
LINE
  5
CA
  8
0
  6
CONTINUOUS
 62
     7
 10
4301.342713144628
 20
1934.42067465204
 30
0.0
 11
4301.342713144628
 21
2169.42067465204
 31
0.0
  0
LINE
  5
CB
  8
0
  6
CONTINUOUS
 62
     7
 10
4301.342713144628
 20
1929.42067465204
 30
0.0
 11
4296.842713144629
 21
1929.42067465204
 31
0.0
  0
LINE
  5
CC
  8
0
  6
CONTINUOUS
 62
     7
 10
4301.342713144628
 20
1934.42067465204
 30
0.0
 11
4301.342713144628
 21
1929.42067465204
 31
0.0
  0
LINE
  5
CD
  8
0
  6
CONTINUOUS
 62
     7
 10
4001.342713144628
 20
2164.92067465204
 30
0.0
 11
4001.342713144628
 21
2169.42067465204
 31
0.0
  0
LINE
  5
CE
  8
0
  6
CONTINUOUS
 62
     7
 10
4006.342713144628
 20
2164.92067465204
 30
0.0
 11
4001.342713144628
 21
2164.92067465204
 31
0.0
  0
LINE
  5
CF
  8
0
  6
CONTINUOUS
 62
     7
 10
4267.842713144628
 20
2114.92067465204
 30
0.0
 11
4296.842713144629
 21
2114.92067465204
 31
0.0
  0
ARC
  5
D0
  8
0
  6
CONTINUOUS
 62
     7
 10
4267.842713144628
 20
2119.92067465204
 30
0.0
 40
5.0
 50
180.0
 51
270.0000000000008
  0
LINE
  5
D1
  8
0
  6
CONTINUOUS
 62
     7
 10
4262.842713144628
 20
2119.92067465204
 30
0.0
 11
4262.842713144628
 21
2164.92067465204
 31
0.0
  0
LINE
  5
D2
  8
0
  6
CONTINUOUS
 62
     7
 10
3901.342713144628
 20
2197.420674652031
 30
0.0
 11
3901.342713144628
 21
2169.420674652031
 31
0.0
  0
LINE
  5
D3
  8
0
  6
CONTINUOUS
 62
     7
 10
3901.342713144628
 20
2197.420674652031
 30
0.0
 11
4301.342713144628
 21
2197.420674652031
 31
0.0
  0
LINE
  5
D4
  8
0
  6
CONTINUOUS
 62
     7
 10
3901.342713144628
 20
2169.420674652031
 30
0.0
 11
4301.342713144628
 21
2169.420674652031
 31
0.0
  0
LINE
  5
D5
  8
0
  6
CONTINUOUS
 62
     7
 10
4301.342713144628
 20
2197.420674652031
 30
0.0
 11
4301.342713144628
 21
2169.420674652031
 31
0.0
  0
LINE
  5
D6
  8
0
  6
CONTINUOUS
 62
     7
 10
4296.842713144629
 20
1925.420674652033
 30
0.0
 11
4256.84271314463
 21
1925.420674652034
 31
0.0
  0
LINE
  5
D7
  8
0
  6
CONTINUOUS
 62
     7
 10
4296.842713144629
 20
1943.420674652033
 30
0.0
 11
4296.842713144629
 21
1925.420674652033
 31
0.0
  0
LINE
  5
D8
  8
0
  6
CONTINUOUS
 62
     7
 10
4256.84271314463
 20
1943.420674652034
 30
0.0
 11
4296.842713144629
 21
1943.420674652033
 31
0.0
  0
LINE
  5
D9
  8
0
  6
CONTINUOUS
 62
     7
 10
4256.842713144628
 20
1920.420674652035
 30
0.0
 11
4238.842713144628
 21
1920.420674652035
 31
0.0
  0
LINE
  5
DA
  8
0
  6
CONTINUOUS
 62
     7
 10
4256.842713144628
 20
2164.420674652034
 30
0.0
 11
4256.842713144628
 21
1920.420674652035
 31
0.0
  0
LINE
  5
DB
  8
0
  6
CONTINUOUS
 62
     7
 10
4238.842713144627
 20
2164.420674652034
 30
0.0
 11
4256.842713144628
 21
2164.420674652034
 31
0.0
  0
LINE
  5
DC
  8
0
  6
CONTINUOUS
 62
     7
 10
4238.842713144628
 20
1920.420674652035
 30
0.0
 11
4238.842713144627
 21
2164.420674652034
 31
0.0
  0
LINE
  5
DD
  8
0
  6
CONTINUOUS
 62
     7
 10
4256.842713144628
 20
2164.920674652035
 30
0.0
 11
4256.842713144628
 21
2164.420674652035
 31
0.0
  0
LINE
  5
DE
  8
0
  6
CONTINUOUS
 62
     7
 10
4238.842713144628
 20
2164.920674652034
 30
0.0
 11
4238.842713144628
 21
2164.420674652034
 31
0.0
  0
LINE
  5
DF
  8
0
  6
CONTINUOUS
 62
     7
 10
4238.842713144628
 20
2164.920674652034
 30
0.0
 11
4256.842713144628
 21
2164.920674652035
 31
0.0
  0
LINE
  5
E0
  8
0
  6
CONTINUOUS
 62
     7
 10
3921.342713145731
 20
1469.42067465202
 30
0.0
 11
3946.342713145731
 21
1469.42067465202
 31
0.0
  0
LINE
  5
E1
  8
0
  6
CONTINUOUS
 62
     7
 10
4242.221575772218
 20
1469.42067465202
 30
0.0
 11
4258.342713145731
 21
1469.42067465202
 31
0.0
  0
LINE
  5
E2
  8
0
  6
CONTINUOUS
 62
     7
 10
4233.34271314573
 20
1469.42067465202
 30
0.0
 11
4242.221575772218
 21
1469.42067465202
 31
0.0
  0
LINE
  5
E3
  8
0
  6
CONTINUOUS
 62
     7
 10
4291.342713144628
 20
1479.420674652017
 30
0.0
 11
4291.342713144628
 21
1551.420674652017
 31
0.0
  0
LINE
  5
E4
  8
0
  6
CONTINUOUS
 62
     7
 10
3902.842713144631
 20
1479.420674652017
 30
0.0
 11
4291.342713144628
 21
1479.420674652017
 31
0.0
  0
LINE
  5
E5
  8
0
  6
CONTINUOUS
 62
     7
 10
3902.842713144631
 20
1479.420674652017
 30
0.0
 11
3902.842713144631
 21
2169.420674652017
 31
0.0
  0
LINE
  5
E6
  8
0
  6
CONTINUOUS
 62
     7
 10
4301.342713144628
 20
1599.378989885144
 30
0.0
 11
4301.342713144625
 21
1929.42067465204
 31
0.0
  0
ARC
  5
E7
  8
0
  6
CONTINUOUS
 62
     7
 10
4411.342713144624
 20
1551.420674652017
 30
0.0
 40
119.9999999999967
 50
156.4435356908981
 51
180.0
  0
ARC
  5
E8
  8
0
  6
CONTINUOUS
 62
     7
 10
4245.342713144628
 20
2145.420674652017
 30
0.0
 40
7.500000000000221
 50
150.0735651334942
 51
209.9264348665066
  0
CIRCLE
  5
E9
  8
0
  6
CONTINUOUS
 62
     7
 10
3957.842713144631
 20
2145.420674652017
 30
0.0
 40
7.5
  0
LINE
  5
EA
  8
0
  6
CONTINUOUS
 62
     7
 10
3901.842713144631
 20
1479.420674652017
 30
0.0
 11
3902.842713144631
 21
1479.420674652017
 31
0.0
  0
LINE
  5
EB
  8
0
  6
CONTINUOUS
 62
     7
 10
3901.842713144631
 20
1479.420674652017
 30
0.0
 11
3901.842713144631
 21
2169.420674652017
 31
0.0
  0
LINE
  5
EC
  8
0
  6
CONTINUOUS
 62
     7
 10
1366.651505540401
 20
2811.270825974356
 30
0.0
 11
3164.651505540401
 21
2811.270825974356
 31
0.0
  0
LINE
  5
ED
  8
0
  6
CONTINUOUS
 62
     7
 10
1366.651505540401
 20
3210.270825974356
 30
0.0
 11
3164.651505540401
 21
3210.270825974356
 31
0.0
  0
LINE
  5
EE
  8
0
  6
CONTINUOUS
 62
     7
 10
3164.651505540401
 20
3210.270825974356
 30
0.0
 11
3164.651505540401
 21
2811.270825974356
 31
0.0
  0
LINE
  5
EF
  8
0
  6
CONTINUOUS
 62
     7
 10
1366.651505540401
 20
3210.270825974356
 30
0.0
 11
1366.651505540401
 21
2811.270825974356
 31
0.0
  0
LINE
  5
F0
  8
0
  6
CONTINUOUS
 62
     7
 10
3164.651505540401
 20
2811.270825974356
 30
0.0
 11
3164.651505540401
 21
2810.270825974356
 31
0.0
  0
LINE
  5
F1
  8
0
  6
CONTINUOUS
 62
     7
 10
1366.651505540401
 20
2810.270825974356
 30
0.0
 11
3164.651505540401
 21
2810.270825974356
 31
0.0
  0
LINE
  5
F2
  8
0
  6
CONTINUOUS
 62
     7
 10
1366.651505540401
 20
2811.270825974356
 30
0.0
 11
1366.651505540401
 21
2810.270825974356
 31
0.0
  0
LINE
  5
F3
  8
0
  6
CONTINUOUS
 62
     7
 10
3165.651505540401
 20
2810.270825974356
 30
0.0
 11
3165.651505540401
 21
3210.270825974356
 31
0.0
  0
LINE
  5
F4
  8
0
  6
CONTINUOUS
 62
     7
 10
3164.651505540401
 20
2810.270825974356
 30
0.0
 11
3165.651505540401
 21
2810.270825974356
 31
0.0
  0
LINE
  5
F5
  8
0
  6
CONTINUOUS
 62
     7
 10
3164.651505540401
 20
2810.270825974356
 30
0.0
 11
3164.651505540401
 21
3210.270825974356
 31
0.0
  0
LINE
  5
F6
  8
0
  6
CONTINUOUS
 62
     7
 10
3164.651505540401
 20
3210.270825974356
 30
0.0
 11
3165.651505540401
 21
3210.270825974356
 31
0.0
  0
LINE
  5
F7
  8
0
  6
CONTINUOUS
 62
     7
 10
1365.651505540401
 20
2810.270825974356
 30
0.0
 11
1366.651505540401
 21
2810.270825974356
 31
0.0
  0
LINE
  5
F8
  8
0
  6
CONTINUOUS
 62
     7
 10
1365.651505540401
 20
2810.270825974356
 30
0.0
 11
1365.651505540401
 21
3210.270825974356
 31
0.0
  0
LINE
  5
F9
  8
0
  6
CONTINUOUS
 62
     7
 10
1365.651505540401
 20
3210.270825974356
 30
0.0
 11
1366.651505540401
 21
3210.270825974356
 31
0.0
  0
LINE
  5
FA
  8
0
  6
CONTINUOUS
 62
     7
 10
1366.651505540401
 20
2810.270825974356
 30
0.0
 11
1366.651505540401
 21
3210.270825974356
 31
0.0
  0
LINE
  5
FB
  8
0
  6
CONTINUOUS
 62
     7
 10
3162.001672696009
 20
287.0712235571543
 30
0.0
 11
3162.001672696009
 21
297.0712235571543
 31
0.0
  0
LINE
  5
FC
  8
0
  6
CONTINUOUS
 62
     7
 10
3137.001672696009
 20
297.0712235571543
 30
0.0
 11
3137.001672696009
 21
287.0712235571543
 31
0.0
  0
ARC
  5
FD
  8
0
  6
CONTINUOUS
 62
     7
 10
1528.501672696021
 20
752.0712235571744
 30
0.0
 40
5.0
 50
180.0
 51
270.0000000000008
  0
LINE
  5
FE
  8
0
  6
CONTINUOUS
 62
     7
 10
1523.501672696021
 20
752.0712235571744
 30
0.0
 11
1523.501672696021
 21
987.0712235571744
 31
0.0
  0
LINE
  5
FF
  8
0
  6
CONTINUOUS
 62
     7
 10
1523.501672696021
 20
987.0712235571744
 30
0.0
 11
1553.501672696021
 21
987.0712235571744
 31
0.0
  0
LINE
  5
100
  8
0
  6
CONTINUOUS
 62
     7
 10
1553.501672696021
 20
752.0712235571744
 30
0.0
 11
1553.501672696021
 21
987.0712235571744
 31
0.0
  0
ARC
  5
101
  8
0
  6
CONTINUOUS
 62
     7
 10
1548.501672696021
 20
752.0712235571744
 30
0.0
 40
5.000000000000227
 50
270.0000000000008
 51
0.0
  0
LINE
  5
102
  8
0
  6
CONTINUOUS
 62
     7
 10
1528.501672696021
 20
747.0712235571744
 30
0.0
 11
1548.501672696021
 21
747.0712235571744
 31
0.0
  0
CIRCLE
  5
103
  8
0
  6
CONTINUOUS
 62
     7
 10
1538.501672696021
 20
762.0712235571744
 30
0.0
 40
2.75
  0
CIRCLE
  5
104
  8
0
  6
CONTINUOUS
 62
     7
 10
1530.001672696021
 20
827.0712235571744
 30
0.0
 40
2.750000000000227
  0
CIRCLE
  5
105
  8
0
  6
CONTINUOUS
 62
     7
 10
1547.001672696021
 20
892.0712235571744
 30
0.0
 40
2.75
  0
CIRCLE
  5
106
  8
0
  6
CONTINUOUS
 62
     7
 10
1530.001672696021
 20
957.0712235571746
 30
0.0
 40
2.750000000000227
  0
LINE
  5
107
  8
0
  6
CONTINUOUS
 62
     7
 10
1364.501672695967
 20
987.0712235571655
 30
0.0
 11
1364.501672695967
 21
991.0712235571655
 31
0.0
  0
LINE
  5
108
  8
0
  6
CONTINUOUS
 62
     7
 10
3162.501672695967
 20
991.0712235571655
 30
0.0
 11
1364.501672695967
 21
991.0712235571655
 31
0.0
  0
LINE
  5
109
  8
0
  6
CONTINUOUS
 62
     7
 10
3162.501672695967
 20
987.0712235571655
 30
0.0
 11
1364.501672695967
 21
987.0712235571655
 31
0.0
  0
LINE
  5
10A
  8
0
  6
CONTINUOUS
 62
     7
 10
3162.501672695967
 20
987.0712235571655
 30
0.0
 11
3162.501672695967
 21
991.0712235571655
 31
0.0
  0
LINE
  5
10B
  8
0
  6
CONTINUOUS
 62
     7
 10
1364.501672695967
 20
1011.071223557165
 30
0.0
 11
1364.501672695967
 21
1015.071223557165
 31
0.0
  0
LINE
  5
10C
  8
0
  6
CONTINUOUS
 62
     7
 10
3162.501672695967
 20
1015.071223557165
 30
0.0
 11
1364.501672695967
 21
1015.071223557165
 31
0.0
  0
LINE
  5
10D
  8
0
  6
CONTINUOUS
 62
     7
 10
3162.501672695967
 20
1011.071223557165
 30
0.0
 11
3162.501672695967
 21
1015.071223557165
 31
0.0
  0
LINE
  5
10E
  8
0
  6
CONTINUOUS
 62
     7
 10
3162.501672695967
 20
1011.071223557165
 30
0.0
 11
1364.501672695967
 21
1011.071223557165
 31
0.0
  0
LINE
  5
10F
  8
0
  6
CONTINUOUS
 62
     7
 10
1364.501672695967
 20
1011.071223557166
 30
0.0
 11
1364.501672695967
 21
991.0712235571655
 31
0.0
  0
LINE
  5
110
  8
0
  6
CONTINUOUS
 62
     7
 10
3162.501672695967
 20
1011.071223557166
 30
0.0
 11
3162.501672695967
 21
991.0712235571655
 31
0.0
  0
LINE
  5
111
  8
0
  6
CONTINUOUS
 62
     7
 10
1363.501672695968
 20
987.0712235571655
 30
0.0
 11
1364.501672695967
 21
987.0712235571655
 31
0.0
  0
LINE
  5
112
  8
0
  6
CONTINUOUS
 62
     7
 10
1363.501672695968
 20
1015.071223557165
 30
0.0
 11
1363.501672695968
 21
987.0712235571655
 31
0.0
  0
LINE
  5
113
  8
0
  6
CONTINUOUS
 62
     7
 10
1364.501672695967
 20
987.0712235571655
 30
0.0
 11
1364.501672695967
 21
1015.071223557165
 31
0.0
  0
LINE
  5
114
  8
0
  6
CONTINUOUS
 62
     7
 10
1364.501672695967
 20
1015.071223557165
 30
0.0
 11
1363.501672695968
 21
1015.071223557165
 31
0.0
  0
LINE
  5
115
  8
0
  6
CONTINUOUS
 62
     7
 10
3163.501672695967
 20
1015.071223557165
 30
0.0
 11
3162.501672695967
 21
1015.071223557165
 31
0.0
  0
LINE
  5
116
  8
0
  6
CONTINUOUS
 62
     7
 10
3163.501672695967
 20
987.0712235571655
 30
0.0
 11
3163.501672695967
 21
1015.071223557165
 31
0.0
  0
LINE
  5
117
  8
0
  6
CONTINUOUS
 62
     7
 10
3162.501672695967
 20
987.0712235571655
 30
0.0
 11
3163.501672695967
 21
987.0712235571655
 31
0.0
  0
LINE
  5
118
  8
0
  6
CONTINUOUS
 62
     7
 10
3162.501672695967
 20
1015.071223557165
 30
0.0
 11
3162.501672695967
 21
987.0712235571655
 31
0.0
  0
LINE
  5
119
  8
0
  6
CONTINUOUS
 62
     7
 10
1866.001672696021
 20
964.5712235571515
 30
0.0
 11
1866.001672696021
 21
959.5712235571515
 31
0.0
  0
ARC
  5
11A
  8
0
  6
CONTINUOUS
 62
     7
 10
1863.501672696021
 20
964.5712235571515
 30
0.0
 40
2.500000000000227
 50
0.0
 51
180.0
  0
LINE
  5
11B
  8
0
  6
CONTINUOUS
 62
     7
 10
1861.001672696021
 20
959.5712235571515
 30
0.0
 11
1861.001672696021
 21
964.5712235571515
 31
0.0
  0
ARC
  5
11C
  8
0
  6
CONTINUOUS
 62
     7
 10
1863.501672696021
 20
959.5712235571515
 30
0.0
 40
2.500000000000227
 50
180.0
 51
0.0
  0
LINE
  5
11D
  8
0
  6
CONTINUOUS
 62
     7
 10
2066.001672696021
 20
964.5712235571515
 30
0.0
 11
2066.001672696021
 21
959.5712235571515
 31
0.0
  0
ARC
  5
11E
  8
0
  6
CONTINUOUS
 62
     7
 10
2063.501672696021
 20
964.5712235571515
 30
0.0
 40
2.5
 50
0.0
 51
180.0
  0
LINE
  5
11F
  8
0
  6
CONTINUOUS
 62
     7
 10
2061.001672696021
 20
959.5712235571515
 30
0.0
 11
2061.001672696021
 21
964.5712235571515
 31
0.0
  0
ARC
  5
120
  8
0
  6
CONTINUOUS
 62
     7
 10
2063.501672696021
 20
959.5712235571515
 30
0.0
 40
2.5
 50
180.0
 51
0.0
  0
LINE
  5
121
  8
0
  6
CONTINUOUS
 62
     7
 10
2266.001672696021
 20
964.5712235571515
 30
0.0
 11
2266.001672696021
 21
959.5712235571515
 31
0.0
  0
ARC
  5
122
  8
0
  6
CONTINUOUS
 62
     7
 10
2263.501672696021
 20
964.5712235571515
 30
0.0
 40
2.500000000000455
 50
0.0
 51
180.0
  0
LINE
  5
123
  8
0
  6
CONTINUOUS
 62
     7
 10
2261.001672696021
 20
959.5712235571515
 30
0.0
 11
2261.001672696021
 21
964.5712235571515
 31
0.0
  0
ARC
  5
124
  8
0
  6
CONTINUOUS
 62
     7
 10
2263.501672696021
 20
959.5712235571515
 30
0.0
 40
2.500000000000455
 50
180.0
 51
0.0
  0
LINE
  5
125
  8
0
  6
CONTINUOUS
 62
     7
 10
2466.001672696021
 20
964.5712235571515
 30
0.0
 11
2466.001672696021
 21
959.5712235571515
 31
0.0
  0
ARC
  5
126
  8
0
  6
CONTINUOUS
 62
     7
 10
2463.501672696022
 20
964.5712235571515
 30
0.0
 40
2.500000000000455
 50
0.0
 51
180.0
  0
LINE
  5
127
  8
0
  6
CONTINUOUS
 62
     7
 10
2461.001672696021
 20
959.5712235571515
 30
0.0
 11
2461.001672696021
 21
964.5712235571515
 31
0.0
  0
ARC
  5
128
  8
0
  6
CONTINUOUS
 62
     7
 10
2463.501672696022
 20
959.5712235571515
 30
0.0
 40
2.500000000000455
 50
180.0
 51
0.0
  0
ARC
  5
129
  8
0
  6
CONTINUOUS
 62
     7
 10
1721.501672696021
 20
945.0712235571515
 30
0.0
 40
8.000000000000227
 50
180.0
 51
270.0000000000008
  0
LINE
  5
12A
  8
0
  6
CONTINUOUS
 62
     7
 10
1713.501672696021
 20
945.0712235571515
 30
0.0
 11
1713.501672696021
 21
987.0712235571515
 31
0.0
  0
LINE
  5
12B
  8
0
  6
CONTINUOUS
 62
     7
 10
1713.501672696021
 20
987.0712235571515
 30
0.0
 11
3013.501672696021
 21
987.0712235571515
 31
0.0
  0
LINE
  5
12C
  8
0
  6
CONTINUOUS
 62
     7
 10
3013.501672696021
 20
945.0712235571515
 30
0.0
 11
3013.501672696021
 21
987.0712235571515
 31
0.0
  0
ARC
  5
12D
  8
0
  6
CONTINUOUS
 62
     7
 10
3005.501672696021
 20
945.0712235571515
 30
0.0
 40
8.0
 50
270.0000000000008
 51
0.0
  0
LINE
  5
12E
  8
0
  6
CONTINUOUS
 62
     7
 10
1721.501672696021
 20
937.0712235571515
 30
0.0
 11
3005.501672696021
 21
937.0712235571515
 31
0.0
  0
ARC
  5
12F
  8
0
  6
CONTINUOUS
 62
     7
 10
2863.501672696022
 20
964.5712235571515
 30
0.0
 40
2.5
 50
0.0
 51
180.0
  0
LINE
  5
130
  8
0
  6
CONTINUOUS
 62
     7
 10
2861.001672696022
 20
959.5712235571515
 30
0.0
 11
2861.001672696022
 21
964.5712235571515
 31
0.0
  0
ARC
  5
131
  8
0
  6
CONTINUOUS
 62
     7
 10
2863.501672696022
 20
959.5712235571515
 30
0.0
 40
2.5
 50
180.0
 51
0.0
  0
LINE
  5
132
  8
0
  6
CONTINUOUS
 62
     7
 10
2866.001672696021
 20
964.5712235571515
 30
0.0
 11
2866.001672696021
 21
959.5712235571515
 31
0.0
  0
ARC
  5
133
  8
0
  6
CONTINUOUS
 62
     7
 10
2663.501672696021
 20
964.5712235571515
 30
0.0
 40
2.5
 50
0.0
 51
180.0
  0
LINE
  5
134
  8
0
  6
CONTINUOUS
 62
     7
 10
2661.001672696021
 20
959.5712235571515
 30
0.0
 11
2661.001672696021
 21
964.5712235571515
 31
0.0
  0
ARC
  5
135
  8
0
  6
CONTINUOUS
 62
     7
 10
2663.501672696021
 20
959.5712235571515
 30
0.0
 40
2.5
 50
180.0
 51
0.0
  0
LINE
  5
136
  8
0
  6
CONTINUOUS
 62
     7
 10
2666.001672696021
 20
964.5712235571515
 30
0.0
 11
2666.001672696021
 21
959.5712235571515
 31
0.0
  0
LINE
  5
137
  8
0
  6
CONTINUOUS
 62
     7
 10
3085.501672696023
 20
743.0712235571687
 30
0.0
 11
1435.501672696023
 21
743.0712235571677
 31
0.0
  0
LINE
  5
138
  8
0
  6
CONTINUOUS
 62
     7
 10
1435.501672696023
 20
761.0712235571677
 30
0.0
 11
1435.501672696023
 21
743.0712235571677
 31
0.0
  0
LINE
  5
139
  8
0
  6
CONTINUOUS
 62
     7
 10
3085.501672696023
 20
761.0712235571687
 30
0.0
 11
1553.501672696021
 21
761.0712235571677
 31
0.0
  0
LINE
  5
13A
  8
0
  6
CONTINUOUS
 62
     7
 10
1541.063410387508
 20
761.0712235571677
 30
0.0
 11
1535.939935004534
 21
761.0712235571677
 31
0.0
  0
LINE
  5
13B
  8
0
  6
CONTINUOUS
 62
     7
 10
1523.501672696021
 20
761.0712235571677
 30
0.0
 11
1435.501672696023
 21
761.0712235571677
 31
0.0
  0
LINE
  5
13C
  8
0
  6
CONTINUOUS
 62
     7
 10
3085.501672696023
 20
761.0712235571687
 30
0.0
 11
3085.501672696023
 21
743.0712235571687
 31
0.0
  0
LINE
  5
13D
  8
0
  6
CONTINUOUS
 62
     7
 10
3135.001672696023
 20
738.0712235571689
 30
0.0
 11
1365.501672696023
 21
738.0712235571692
 31
0.0
  0
LINE
  5
13E
  8
0
  6
CONTINUOUS
 62
     7
 10
1365.501672696019
 20
982.0712235571691
 30
0.0
 11
1365.501672696023
 21
738.0712235571692
 31
0.0
  0
LINE
  5
13F
  8
0
  6
CONTINUOUS
 62
     7
 10
3135.00167269602
 20
982.0712235571688
 30
0.0
 11
3013.501672696021
 21
982.0712235571688
 31
0.0
  0
LINE
  5
140
  8
0
  6
CONTINUOUS
 62
     7
 10
1713.501672696021
 20
982.0712235571691
 30
0.0
 11
1553.501672696021
 21
982.0712235571691
 31
0.0
  0
LINE
  5
141
  8
0
  6
CONTINUOUS
 62
     7
 10
1523.501672696021
 20
982.0712235571691
 30
0.0
 11
1365.501672696019
 21
982.0712235571691
 31
0.0
  0
LINE
  5
142
  8
0
  6
CONTINUOUS
 62
     7
 10
3135.00167269602
 20
982.0712235571688
 30
0.0
 11
3135.001672696023
 21
738.0712235571689
 31
0.0
  0
LINE
  5
143
  8
0
  6
CONTINUOUS
 62
     7
 10
3135.00167269602
 20
982.571223557169
 30
0.0
 11
3135.00167269602
 21
982.0712235571689
 31
0.0
  0
LINE
  5
144
  8
0
  6
CONTINUOUS
 62
     7
 10
1365.501672696019
 20
982.5712235571693
 30
0.0
 11
1365.501672696019
 21
982.0712235571693
 31
0.0
  0
LINE
  5
145
  8
0
  6
CONTINUOUS
 62
     7
 10
1365.501672696019
 20
982.5712235571693
 30
0.0
 11
1523.501672696021
 21
982.5712235571693
 31
0.0
  0
LINE
  5
146
  8
0
  6
CONTINUOUS
 62
     7
 10
1553.501672696021
 20
982.5712235571693
 30
0.0
 11
1713.501672696021
 21
982.5712235571692
 31
0.0
  0
LINE
  5
147
  8
0
  6
CONTINUOUS
 62
     7
 10
3013.501672696021
 20
982.5712235571691
 30
0.0
 11
3135.00167269602
 21
982.571223557169
 31
0.0
  0
LINE
  5
148
  8
0
  6
CONTINUOUS
 62
     7
 10
3135.501672696023
 20
738.0712235571689
 30
0.0
 11
3135.001672696023
 21
738.0712235571689
 31
0.0
  0
LINE
  5
149
  8
0
  6
CONTINUOUS
 62
     7
 10
3135.00167269602
 20
982.571223557169
 30
0.0
 11
3135.001672696023
 21
738.0712235571689
 31
0.0
  0
LINE
  5
14A
  8
0
  6
CONTINUOUS
 62
     7
 10
3135.501672696019
 20
982.571223557169
 30
0.0
 11
3135.00167269602
 21
982.571223557169
 31
0.0
  0
LINE
  5
14B
  8
0
  6
CONTINUOUS
 62
     7
 10
3137.001672696009
 20
287.0712235571543
 30
0.0
 11
3162.001672696009
 21
287.0712235571543
 31
0.0
  0
LINE
  5
14C
  8
0
  6
CONTINUOUS
 62
     7
 10
3135.501672696023
 20
417.0295387902787
 30
0.0
 11
3135.501672696025
 21
987.0712235571514
 31
0.0
  0
LINE
  5
14D
  8
0
  6
CONTINUOUS
 62
     7
 10
3135.501672696025
 20
987.0712235571514
 30
0.0
 11
3138.001672696025
 21
987.0712235571514
 31
0.0
  0
LINE
  5
14E
  8
0
  6
CONTINUOUS
 62
     7
 10
3138.001672696023
 20
417.0295387902788
 30
0.0
 11
3138.001672696025
 21
987.0712235571514
 31
0.0
  0
LINE
  5
14F
  8
0
  6
CONTINUOUS
 62
     7
 10
3135.501672696023
 20
417.0295387902787
 30
0.0
 11
3138.001672696023
 21
417.0295387902788
 31
0.0
  0
LINE
  5
150
  8
0
  6
CONTINUOUS
 62
     7
 10
3135.501672696023
 20
369.0712235571514
 30
0.0
 11
3138.001672696023
 21
369.0712235571514
 31
0.0
  0
LINE
  5
151
  8
0
  6
CONTINUOUS
 62
     7
 10
3135.501672696023
 20
369.0712235571514
 30
0.0
 11
3135.501672696023
 21
417.0295387902787
 31
0.0
  0
LINE
  5
152
  8
0
  6
CONTINUOUS
 62
     7
 10
3138.001672696023
 20
369.0712235571514
 30
0.0
 11
3138.001672696023
 21
417.0295387902788
 31
0.0
  0
LINE
  5
153
  8
0
  6
CONTINUOUS
 62
     7
 10
3135.501672696023
 20
297.0712235571514
 30
0.0
 11
3138.001672696023
 21
297.0712235571514
 31
0.0
  0
LINE
  5
154
  8
0
  6
CONTINUOUS
 62
     7
 10
3135.501672696023
 20
297.0712235571514
 30
0.0
 11
3135.501672696023
 21
369.0712235571514
 31
0.0
  0
LINE
  5
155
  8
0
  6
CONTINUOUS
 62
     7
 10
3138.001672696023
 20
297.0712235571514
 30
0.0
 11
3138.001672696023
 21
369.0712235571514
 31
0.0
  0
LINE
  5
156
  8
0
  6
CONTINUOUS
 62
     7
 10
3161.001672696023
 20
417.0295387902786
 30
0.0
 11
3163.501672696023
 21
417.0295387902786
 31
0.0
  0
LINE
  5
157
  8
0
  6
CONTINUOUS
 62
     7
 10
3163.501672696023
 20
369.0712235571513
 30
0.0
 11
3163.501672696023
 21
417.0295387902786
 31
0.0
  0
LINE
  5
158
  8
0
  6
CONTINUOUS
 62
     7
 10
3161.001672696023
 20
369.0712235571513
 30
0.0
 11
3163.501672696023
 21
369.0712235571513
 31
0.0
  0
LINE
  5
159
  8
0
  6
CONTINUOUS
 62
     7
 10
3161.001672696023
 20
417.0295387902786
 30
0.0
 11
3161.001672696023
 21
369.0712235571513
 31
0.0
  0
LINE
  5
15A
  8
0
  6
CONTINUOUS
 62
     7
 10
3161.001672696023
 20
417.0295387902786
 30
0.0
 11
3161.001672696025
 21
987.0712235571513
 31
0.0
  0
LINE
  5
15B
  8
0
  6
CONTINUOUS
 62
     7
 10
3161.001672696025
 20
987.0712235571513
 30
0.0
 11
3163.501672696025
 21
987.0712235571513
 31
0.0
  0
LINE
  5
15C
  8
0
  6
CONTINUOUS
 62
     7
 10
3163.501672696023
 20
417.0295387902786
 30
0.0
 11
3163.501672696025
 21
987.0712235571513
 31
0.0
  0
LINE
  5
15D
  8
0
  6
CONTINUOUS
 62
     7
 10
3161.001672696023
 20
297.0712235571513
 30
0.0
 11
3163.501672696023
 21
297.0712235571513
 31
0.0
  0
LINE
  5
15E
  8
0
  6
CONTINUOUS
 62
     7
 10
3161.001672696023
 20
369.0712235571513
 30
0.0
 11
3161.001672696023
 21
297.0712235571513
 31
0.0
  0
LINE
  5
15F
  8
0
  6
CONTINUOUS
 62
     7
 10
3163.501672696023
 20
297.0712235571513
 30
0.0
 11
3163.501672696023
 21
369.0712235571513
 31
0.0
  0
LINE
  5
160
  8
0
  6
CONTINUOUS
 62
     7
 10
3138.001672696023
 20
369.0712235571514
 30
0.0
 11
3161.001672696023
 21
369.0712235571513
 31
0.0
  0
LINE
  5
161
  8
0
  6
CONTINUOUS
 62
     7
 10
3138.001672696023
 20
417.0295387902788
 30
0.0
 11
3161.001672696046
 21
417.0295387902786
 31
0.0
  0
LINE
  5
162
  8
0
  6
CONTINUOUS
 62
     7
 10
3161.001672696048
 20
987.0712235571513
 30
0.0
 11
3138.001672696025
 21
987.0712235571514
 31
0.0
  0
LINE
  5
163
  8
0
  6
CONTINUOUS
 62
     7
 10
3161.001672696046
 20
297.0712235571513
 30
0.0
 11
3138.001672696023
 21
297.0712235571514
 31
0.0
  0
ENDSEC
  0
EOF
